Jack Johnson - From The Clouds Chords & Tabs

 

From The Clouds Chords & Tabs

Jack Johnson Chords & Tabs

Version: 3 Type: Tab

From The Clouds Tab

   
 great song by jack johnson. this will probably be the best tab you get.
if you have any problems with getting lost, it helps to listen to the song and 
play and pause it as you go through just to know what it sounds like.
at the bottom i have a link for a good video on youtube that shows the guitar.


 s-slide

e]---------------|-----------------|----------------|-----------------|
A]8-8s3--5-55s77-|-8-8s3----7------|-8-8s3--5-55s77-|-8-8s3---5-------|
D]9-9s4--5-55s77-|-9-9s4-5s7-7s5-0-|-9-9s4--5-55s77-|-9-9s4--5-5-2----|
G]---------------|-----------------|----------------|-------------4-55|
B]---------------|-----------------|----------------|-----------------|
E]---------------|-----------------|----------------|-----------------|

 |----------------|
 |----------------|
 |4---------------|
 |-5---------4755-|  play this 4x..... then!
 |---5-33-335-----|    <----
 |----------------|

 |-3-3----7s5----|  notes on the high e are optional, i just thought they
 |-3-3--8-7s5----|  sounded good 
 |-4-4--9-7s5----|
 |---------------|  play this 4x...... then
 |---------------|    <----
 |---------------|
[ Tab from: http://www.guitartabs.cc/tabs/j/jack_johnson/from_the_clouds_tab_ver_3.html ]
 |-----------|------|     the "r" just means let the chord ring out till
 |-5-5--5rr5-|5-5---|     you play it again
 |-5-5--5rr5-|5-5---|
 |-7-7--7rr7-|7-7---|     then...
 |-----------|------|
 |-----------|------|  

e]---------------|-----------|------|
A]8-8s3--5-55s77-|-5-5--5rr5-|5-5---|
D]9-9s4--5-55s77-|-5-5--5rr5-|5-5---|
G]---------------|-7-7--7rr7-|7-7---|     then...
B]---------------|-----------|------|
E]---------------|-----------|------|



 |-----------------|----------------|
 |-8-8s3---5-------|----------------|
 |-9-9s4--5-5-2----|4---------------|    repeat the last part 4x
 |-------------4-55|-5---------4755-|    
 |-----------------|---5-33-335-----|
 |-----------------|----------------|

READ THIS: IT MIGHT HELP

      Thats about it. theres like another minute of the song but i've already 
showed you how to play everything. there is a part towards the end which goes
"More love that you feel. the more your little heart will ache"
well he uses two power chords
e]---         e]---
A]---         A]---
D]-5-   and   D]-7-     he just slides bck and forth between these two
G]-5-         G]-7-
B]-3-         B]-5-
E]---         E]---

there is a youtube link which you can look at and you can see the beat and how he 
uses those last two chords.. im too lazy to show you :)  

           http://www.youtube.com/watch?v=TkpFr_pEmpA

                      Thanks!