Jack Johnson - Fortunate Fool Chords & Tabs

 

Fortunate Fool Chords & Tabs

Jack Johnson Chords & Tabs

Version: 1 Type: Bass Tab 0 ratings
1 star 2 stars 3 stars 4 stars 5 stars
comments

Fortunate Fool Bass Tab

Song: Fortunate Fool
Artist: Jack Johnson
Album: Brushfire Fairytales
Tabbed By: ADRA (d_abernathy20@hotmail.com)


Standard Tunning
*= let ring
^= lift


Intro/Chorus
G|-------------------|
D|-------------------|
A|-2*-2--------------|
E|------4*-4-3*-3-2*-|


Verse
G|------------------|
D|------------------|
A|-2*-4^-5^-6^------|
E|-------------4*-4-|


Fill
G|-------------------|
D|-------------------|
A|-4*-4------4*-4----|
E|------2*-2------2^-|

[ Tab from: http://www.guitartabs.cc/tabs/j/jack_johnson/fortunate_fool_btab.html ]
Pre-Chorus:
G|-------------------|
D|-------------------|
A|-4*-4-4-4-6*-6-6-6-|
E|-------------------|



Pro-Chorus:
G|--------------|
D|--------------|
A|-2*-2---------|
E|------4*-4-3*-|


Outro
G|----|
D|----|
A|-2*-|
E|----|


Order:
Intro       x1
Verse       x9
Fill        x1
Verse       x7
Fill        x1
Verse       x2
Pre-Chorus  x1
Chorus      x3
Pro-Chorus  x1
Verse       x9
Fill        x1
Verse       x2
Pre-Chorus  x1
Chorus      x3
Pro-Chorus  x1
Outro       x1

That's about it, it's not very hard at all, especially since it's a slow song.
Email me with any questions or comments. There ya go, enjoy.
Comments