Jack Johnson - Flake Chords & Tabs

 

Flake Chords & Tabs

Jack Johnson Chords & Tabs

Version: 1 Type: Bass Tab 0 ratings
1 star 2 stars 3 stars 4 stars 5 stars
comments

Flake Bass Tab

Jack Johnson
Flake (BASS TABS)
___________________

Tabbed out by Heather Kemmler



Standard Tuning

Come in after guitar riff plays twice (after 8 measures, with percussion)

Verse

G----------------------------------
D--10-11-12---12-12---15\----------
A------------------------8---8-8---
E----------------------------------

G----------------------------------
D--10\8---8-8---10\----------------
A------------------8---8-8---------
E----------------------------------

Chorus

G----------------------------------
D-------------7-10---10-10-10--11--
A--8---8-8-8-----------------------
E----------------------------------
[ Tab from: http://www.guitartabs.cc/tabs/j/jack_johnson/flake_btab.html ]
G----------------------------------
D--12--12-12-12---12-7--7-7-7---7--
A----------------------------------
E----------------------------------

G----------------------------------
D--8--8-8-8---9-10--10-10-10--10---
A----------------------------------
E----------------------------------

G----------------------------------
D----------------------------------
A--8--8-8-8---8-10--10-10-10-------
E----------------------------------



That's about it! Note: Some variations are played by Merlo, i.e. at the end of
the verse he goes form the Bb to the C# and stays there instead of going back 
to the F, then he gets into the chorus.

Any corrections or comments just Email me at dizzyg5966@hotmail.com
Comments