Jack Johnson - Dreams Be Dreams Chords & Tabs

 

Dreams Be Dreams Chords & Tabs

Jack Johnson Chords & Tabs

Version: 2 Type: Tab 0 ratings
1 star 2 stars 3 stars 4 stars 5 stars
comments

Dreams Be Dreams Tab

   
Dreams be Dreams - Jack Johnson
tabbed by ZososoZ


Intro		    Fill
e--7/10--\7--5/7\5-|--7----7-----------| 
b--7/10--\7--5/7\5-|--7h10-7-9-7---7---|
g------------------|-----------7h9-7---|
d------------------|-----------------9-|
a------------------|-------------------|
e------------------|-------------------|
		     play fill 3 times
		     and play next
		     part into verse


Transition to Verse
e------------------------------------------------
b------------------------------------------------
g--7---7-----------------------------------------
d--7h9-7h9-7-------------------------------------
a------------9-7------0--------------------------
e----------------10-7----------------------------


Verse D     Bm chord  G chord   A chord 
e---------|---------|---------|-----------|------
b---------|---------|---------|-----------|------
g---------|---------|---------|-----------|------
d------4--|------0--|---------|-----------|------
a--0-5----|--0-2----|------2--|--------4--|------
e---------|---------|--0-3----|--3-3/5----|------
[ Tab from: http://www.guitartabs.cc/tabs/j/jack_johnson/dreams_be_dreams_tab_ver_2.html ]
She's just waiting for the summertime
when the weathers fine
and she could hitch a ride out of town
and so far away
from that low down, good for nothing
mistake making fool with excuses like

(strum for this part)

"baby that was a long time ago"
but thats just a euphemism
if you want the truth he was out of control
but a short time's a long time
when your mind just won't let it go

(play fill 3 times again and then play transition into solo)


Solo
e------------------------------------------------
b--------------7---7-----------------------------
g----------7---7h9-7---7---7---------------------
d--/7--7h9---9-------9-7h9-7---------------------
a----------------------------9-7-----------------
e------------------------------------------------


e--------------7----7----------------------------
b--------------7h10-7-7-7-0----------------------
g----------7----------9-7-0----------------------
d---/7-7h9---9-----------------------------------
a------------------------------------------------
e------------------------------------------------

Well summer came along and then it was gone
and so was she but not from him
cuz he followed her just to let her know
her dreams are dreams
and all this living is so much harder than it seems
but girl don't let your dreams be dreams
you know this living is not so hard as it seems
don't let your dreams be dreams
Comments