Jack Johnson - Crying Shame Chords & Tabs

 

Crying Shame Chords & Tabs

Jack Johnson Chords & Tabs

Version: 1 Type: Bass Tab 0 ratings
1 star 2 stars 3 stars 4 stars 5 stars
comments

Crying Shame Bass Tab

   
Song:  Crying Shame
Band:  Jack Johnson
Album: In Between Dreams
Tabbed By: Charlie (bassguitar116@yahoo.com)
Standard Tuning: E A D G

(0:16)
E|-----------------------------------------------------------------|
A|-----------------------------------------------------------------|
D|--------------------4-4--22-2-22--4-4--22-2-22--4-4--22-2-22-----|
G|-4-4--4-4--4-4--4-4----------------------------------------------|

E|--------------------------------------------------------------------------|
A|--------------------------------------------------------------------------|
D|-4-4--22-2-22--------------------4-4--22-2-22--4-4--22-2-22--4-4--22-2-22-|
G|--------------4-4--4-4--4-4--4-4------------------------------------------|

E|-------------|----------------------|-------6-6-----------8-8----|
A|-------------|----------REST--------|-4-4--4-----4--6-6--6------6| REPEAT
D|-4-4--22-2-22|-16 SECONDS/4 MEASURES|----------------------------|   1X
G|-------------|----------------------|----------------------------|

E|----------------------------|
A|----------------------------| REPEAT
D|-4-4--4-2-2--2-0-0--0-------|   2X
G|----------------------4--4--|

E|-----------------------------|
A|-----------------------------|
D|-4-4--4-2-2--2-0-0--0--------|
G|----------------------4--4--2|
[ Tab from: http://www.guitartabs.cc/tabs/j/jack_johnson/crying_shame_btab.html ]
E|--------------------------------------------------------|
A|--------------------------------------------------------|
D|-4-4--22-2-22--4-4--22-2-22--4-4--22-2-22--4-4--22-2-22-|
G|--------------------------------------------------------|

E|---------------------------------------------------------------------------|
A|---------------------------------------------------------------------------|
D|--------------------4-4--22-2-22--4-4--22-2-22--4-4--22-2-22--4-4--22-2-22-|
G|-4-4--4-4--4-4--4-4--------------------------------------------------------|

E|---------------------------------------------------------------------------|
A|---------------------------------------------------------------------------|
D|--------------------4-4--22-2-22--4-4--22-2-22--4-4--22-2-22--4-4--22-2-22-|
G|-4-4--4-4--4-4--4-4--------------------------------------------------------|

E|----------------------|-------6-6-----------8-8----|
A|----------REST--------|-4-4--4-----4--6-6--6------6| REPEAT
D|-16 SECONDS/4 MEASURES|----------------------------|   1X
G|----------------------|----------------------------|

E|----------------------------|
A|----------------------------| REPEAT
D|-4-4--4-2-2--2-0-0--0-------|   2X
G|----------------------4--4--|

E|-----------------------------|
A|-----------------------------|
D|-4-4--4-2-2--2-0-0--0--------|
G|----------------------4--4--2|

E|---|
A|---|
D|-4-|
G|---|
Comments