Jack Johnson - Cookie Jar Chords & Tabs

 

Cookie Jar Chords & Tabs

Jack Johnson Chords & Tabs

Version: 2 Type: Tab 0 ratings
1 star 2 stars 3 stars 4 stars 5 stars
comments

Cookie Jar Tab

E-------------------------------|
B-------------------------------|
G--------6----------------------|
D-4------6-x2---9---------------|    do that about 9 times then
A-4-x4---4------9-x4------------|
E-2-------------7---------------|
[ Tab from: http://www.guitartabs.cc/tabs/j/jack_johnson/cookie_jar_tab_ver_2.html ]
E---------------------------------|
B---------------------------------|  continue to do this riff after every 3
G------6--------------------------|  times then goes back to riff before this
D-4----6-x2----4h6-4----9---------|  one
A-4-x4-4----4h7------7--9-x4------|
E-2---------------------7---------|
Comments