Jack Johnson - Constellations Chords & Tabs

 

Constellations Chords & Tabs

Jack Johnson Chords & Tabs

Version: 2 Type: Tab 0 ratings
1 star 2 stars 3 stars 4 stars 5 stars
comments

Constellations Tab

[-4-3-4-6-4-3---]     [-2-----6-4-2---] 
[-------------4-]     [---2---------4-]   
[---------------]     [-----3---------]  
[---------------]     [---------------]  
[---------------]     [---------------]  
[-4-------------]     [-2-------------]  


[---------------]     [-4-----3-1-----]
[-2-----4-------]     [---3-------4---]
[---1-----3-----]     [-----5-------3-]
[-----3-----5---]     [---------------]
[---------------]     [-6-------------]
[-4-------------]     [---------------]
[ Tab from: http://www.guitartabs.cc/tabs/j/jack_johnson/constellations_tab_ver_2.html ]
Comments