Jack Johnson - Bubble Toes Chords & Tabs

 

Bubble Toes Chords & Tabs

Jack Johnson Chords & Tabs

Version: 2 Type: Tab 0 ratings
1 star 2 stars 3 stars 4 stars 5 stars
comments

Bubble Toes Tab

VERSE
e----------------------------------------------------------------------
b----------------------------------------------------------------------
g----------5-----7-----------------------------------------------------X5
d---5------5-x2--7x4---------------------------------------------------
a---5-x5---3-----5-----------------------------------------------------
e---3------------------------------------------------------------------
THAT COOL RUN THING
a----------------------------------------------------------------------
b----------------------------------------------------------------------
g----------------------------------------------------------------------
d----------------------------------------------------------------------
a-------2-3-5----------------------------------7-7-7-7-9-7-5-3---------
e----33-------3--------------------------------------------------------

a----------------------------------------------------------------------
b----------------------------------------------------------------------
g----------5-------7---------------------------------------------------till end
d---5------5-x2----7-x4------------------------------------------------
a---5-x5---3-------5---------------------------------------------------
e---3------------------------------------------------------------------
[ Tab from: http://www.guitartabs.cc/tabs/j/jack_johnson/bubble_toes_tab_ver_2.html ]
Comments