Jack Johnson - Bubble Toes Chords & Tabs

 

Bubble Toes Chords & Tabs

Jack Johnson Chords & Tabs

Version: 1 Type: Tab 0 ratings
1 star 2 stars 3 stars 4 stars 5 stars
comments

Bubble Toes Tab

   
this is the intro 
e------------
b------------
g-7-----9----
d-7--7--9-10-
a-5--7--7-10-
e----5----8---
little diddy during the intro
e----------
b----------
g----------
d----2--3--2
a-3--x--x--x
e-1--3--3--3
then G-C-D barre chords
little break down
d-5--5-------------2--2-2-2-4-2-0-2-0
a-5--5--2--3--5----------------------
e-3--3-----------3-------------------
then pretty then backt the G-C-D barre chords for the rest of the song
there's also a lot of muting in between each strum-don't fuck it up
[ Tab from: http://www.guitartabs.cc/tabs/j/jack_johnson/bubble_toes_tab.html ]
Comments