Jack Johnson - Better Together Chords & Tabs

 

Better Together Chords & Tabs

Jack Johnson Chords & Tabs

Version: 3 Type: Tab 0 ratings
1 star 2 stars 3 stars 4 stars 5 stars
comments

Better Together Tab

Better Together by Jack Johnson
tabbed by: Aspence26
tuning: eadgbe

INTRO: (copied from another version, its close enough)

e ------------------------------------------------------------------------|
B ------------------------------------------------------------------------|
G ------12------10------7-------7-----7------10-------12-------10----10---|
D 10/12---12\10----10\7---7\5-----5/7---7/10----10/12----12/10----10------|
A ----------------------------------------------------------------------8-|
E ------------------------------------------------------------------------|

Verse riff: (there can be some muting in between some notes or slapping of the guitar, 
you're in the mood for)
[ Tab from: http://www.guitartabs.cc/tabs/j/jack_johnson/better_together_tab_ver_3.html ]
e-------------------------------------------------------------|
B---10-10-10---10-----10-10---10----6-6-6---6---6-6---8-------|
G---10-10-10---10-----10-10---10----7-7-7---7---7-7---9-------|
D-------------------------------------------------------------|
A-8----------7------------------------------------------------|
E------------------10-------8-----6-------5---3-----8---------|


Chorus (Not all strings are played every strum but do whatever feels right, and my 
pattern is a little off on here)

    D u   u u    D  u    u  u
e---6-6-x-6-6-x--8--8-x--8--8-x--6-6-x-6-6-x--8--8-x--8--8--|
B---6-6-x-6-6-x-10-10-x-10-10-x--6-6-x-6-6-x-10-10-x-10-10--|
G---7-7-x-7-7-x--9--9-x--9--9-x--7-7-x-7-7-x--9--9-x--9--9--|
D---8-8-x-8-8-x--8--8-x--8--8-x--8-8-x-8-8-x--8--8-x--8--8--|
A---8-8-x-8-8-x-10-10-x-10-10-x--8-8-x-8-8-x-10-10-x-10-10--|
E---6-6-x-6-6-x--8--8-x--8--8-x--6-6-x-6-6-x--8--8-x--8--8--|


I'm sure that I'm not right on the money with this tab but it could be close. If you 
get the E 3rd fret with your thumb during the verse throw a capo on third fret. I lost mine 
I'm broke so I haven't tried it with a capo yet.
Comments