Jack Johnson - Belle Chords & Tabs

 

Belle Chords & Tabs

Jack Johnson Chords & Tabs

Version: 3 Type: Tab

Belle Tab

This is a great song by Jack Johnson, I didn't see any correct tabs for it on here so I
put this together...Enjoy!



  Play once quietly
|--0--0--0--0--0--0--|
|--3--3--3--3--3--3--|
|--0--0--0--0--0--0--|
|--2--2--2--2--2--2--|
|--2--2--2--2--2--2--|
|--0--0--0--0--0--0--|

[ Tab from: http://www.guitartabs.cc/tabs/j/jack_johnson/belle_tab_ver_3.html ]
* * * * * * * * * * * * * * * *Play 3X * * * * * * * * * * * * * * * * * * *
*                                                                          *
*|------------------------|------------------------|----------------------|*
*|--3-----3---3---------3-|--3-----3----3--------3-|-3-----3---3--------3-|*
*|--4-----4---4-------4---|--3-----3----3------3---|-4-----4---4------4---|*
*|--4-----4---4-----4-----|--3-----3----3----2-----|-4-----4---4----4-----|*
*|------------------------|------------------------|----------------------|*
*|-3---3-3---3----3-------|-3---3-3---3----3-------|3---3-3---3----3------|*
*                                                                          *
*                                                                          *
*|------------------------|------------------------|----------------------|*
*|--7-----7--8-8----8-8-8-|--5-----5---5---------5-|-5-----5---4--------4-|*
*|--7-----7--8-8----8-8-8-|--5-----5---5-------5---|-5-----5---5------5---|*
*|--7-----7--8-8----8-8-8-|--5-----5---5-----4-----|-5-----5---4----4-----|*
*|------------------------|------------------------|----------------------|*
*|-7---7-7---8----8-------|-5---5-5---5----5-------|5---5-5---4----4------|*
*                                                                          *
*                                                   * * * * * * * * * * * * 
*|------------------------|------------------------|*                    
*|--3-----3---8---------8-|--5-----5----4--------4-|*
*|--4-----4---9-------9---|--5-----5----5------5---|*
*|--4-----4---9-----9-----|--5-----5----4----4-----|*
*|------------------------|------------------------|*
*|-3---3-3---8----8-------|-5---5-5---4----4-------|*
*                                                   * 
* * * * * * * * * * * * * * * Play 3X * * * * * * * * 

 
Play the part above 3 times then...

 >>>>Ending<<<<<
|---------------|
|--3-----3---3--|
|--4-----4---4--|
|--4-----4---4--|
|---------------|
|-3---3-3-------|


This sounds good to me but email me if you have any questions/HELPFUL comments-
butrfligurl127@hotmail.com