Jack Johnson - Banana Pancakes Chords & Tabs

 

Banana Pancakes Chords & Tabs

Jack Johnson Chords & Tabs

Version: 3 Type: Tab 0 ratings
1 star 2 stars 3 stars 4 stars 5 stars
comments

Banana Pancakes Tab

   
Hey Guys its my first tab so plz leave some comments...

Tabbed by deanbean16


  (Intro)/ Chorus
E ---------------------------x-5--------------------------x-3--------------------------x-5-|
B ---------------------------x-5--------------------------x-3--------------------------x-5-|
G ---------------------------x-6--------------------------x-4--------------------------x-6-|
D ---------------------------x-7--------------------------x-5--------------------------x-7-|
A --------5------------------x-7---------5----------------x-5---------5--7--5----------x-7-|
E ---5/7-----7--5-5/3--0-3/5-x-5----5/7-----7--5-5/3--0-3-x-3----5/7-----------7-0/3/5-x-5-|
                                                                Can't You see.......
                                   U    U D
E -------------------------x-3-----3----3-3---|
B -------------------------x-3-----3----3-3---|
G -------------------------x-4-----4----4-4---|
D -------------------------x-5----------5-5---|
A --------5----------------x-5----------5-5---|
E ---5/7-----7--5-5/3--0-3-x-3----------3-3---|
                                     But Baby...
[ Tab from: http://www.guitartabs.cc/tabs/j/jack_johnson/banana_pancakes_tab_ver_3.html ]
(Verse 1)
       D     D     D   D D
E -----3-----3-----5---3-3------------------|
B -----3-----3-----5---5-5------------------|
G -----4-----4-----6---5-5------------------|
D -----5-----5-----7---5-5------------------|  (REPEAT 4 TIMES)
A -----5---5-------7---3-3------------------|
E ---3-----------5-----3-3------------------|


    U    U D
E ---3----3-3--------------------------------|
B ---3----3-3--------------------------------|
G ---4----4-4--------------------------------|
D --------5-5--------------------------------|
A --------5-5--------------------------------|
E --------3-3--------------------------------|


Fill:
E ----------|
D ----------|
B ----------|
G ----5-7-5-|
A 5/7-------|
E ----------|


 (Verse 1)
       D     D     D   D D
E -----3-----3-----5---3-3-------------------|
B -----3-----3-----5---5-5-------------------|
G -----4-----4-----6---5-5-------------------|
D -----5-----5-----7---5-5-------------------|  (REPEAT 4 TIMES)
A -----5---5-------7---3-3-------------------|
E ---3-----------5-----3-3-------------------|


Fill again:
e ----------|
D ----------|
B ----------|
G ----5-7-5-|
A 5/7-------|
E ----------|

Chorus Again:
Comments