Jack Johnson - Banana Pancakes Chords & Tabs

 

Banana Pancakes Chords & Tabs

Jack Johnson Chords & Tabs

Version: 2 Type: Tab 0 ratings
1 star 2 stars 3 stars 4 stars 5 stars
comments

Banana Pancakes Tab

   
Track: Banana Pancakes
Album: In Between Dreams
Artist: Jack Johnson
Tabbed by: Soumitra Tole
Email: soumitra.tole@gmail.com

Tuning: EADGBe
 Intro:                                  Am
                                         G
e|---------------------------------------3-------------------------------------|
B|---------------------------------------3-------------------------------------|
G|------------7--------------------------4-------------------------------------|
D|-----7s9------9--7--5-----5------------5-------------------------------------|
A|---------------------------7-----------5-------------------------------------|
E|---------------------------------------3-------------------------------------|

Play this twice. He starts singing the second time.

"But Baby"
       D7
e|------5---------------------------------------------------------------------|
B|------7---------------------------------------------------------------------|
G|------5---------------------------------------------------------------------|
D|------7---------------------------------------------------------------------|
A|------5---------------------------------------------------------------------|
E|----------------------------------------------------------------------------|

Verse 1:
       G             Am           C               D7
e|-------3------------5--------------3---------------5------------------------|
B|-------3------------5--------------5---------------7------------------------|
G|-------4------------5--------------5---------------5------------------------|
D|-------5------------7--------------5---------------7------------------------|
A|-------5------------7---------3----3----------5----5------------------------|
E|--3----3-------5----5-------------------------------------------------------|    Repeat 4X

        Am                                 G
e|------5------------------------------------3-------------------------------|
B|------5------------------------------------3-------------------------------|
G|------5--------------7---------------------4--------------7----------------|
D|------7-------7s9-----9--7--5--------------5-------7s9------9--7--5--------|
A|------7----------------------------7-------5-------------------------7-----|
E|------5------------------------------------3-------------------------------|   Repeat twice.


     D7
e|------5--------------------------------------------------------------------|
B|------7--------------------------------------------------------------------|
G|------5--------------------------------------------------------------------|
D|------7--------------------------------------------------------------------|
A|------5--------------------------------------------------------------------|
E|---------------------------------------------------------------------------|

[ Tab from: http://www.guitartabs.cc/tabs/j/jack_johnson/banana_pancakes_tab_ver_2.html ]
Verse 2:
       G             Am           C               D7
e|-------3------------5--------------3---------------5------------------------|
B|-------3------------5--------------5---------------7------------------------|
G|-------4------------5--------------5---------------5------------------------|
D|-------5------------7--------------5---------------7------------------------|
A|-------5------------7---------3----3----------5----5------------------------|
E|--3----3-------5----5-------------------------------------------------------|    Repeat 4X

        Am                                 G
e|------5------------------------------------3-------------------------------|
B|------5------------------------------------3-------------------------------|
G|------5--------------7---------------------4--------------7----------------|
D|------7-------7s9-----9--7--5--------------5-------7s9------9--7--5--------|
A|------7----------------------------7-------5--------------------------7----|
E|------5------------------------------------3-------------------------------|   Repeat twice.


"Ain't no need, ain't no need..."
        Am                G
e|------5----------------3--|
B|------5----------------3--|
G|----- 7----------------5--|
D|------7----------------5--|
A|------5----------------5--|
E|------5----------------3--|  Repeat twice

"The telephone's ringin..."
           Am           D7
e|-------5-------------5------------------------------------------------------|
B|-------5-------------7------------------------------------------------------|
G|-------5-------------5------------------------------------------------------|
D|-------7-------------7------------------------------------------------------|
A|-------7-------------5------------------------------------------------------|
E|-------5--------------------------------------------------------------------|     Repeat Twice

"When the whole world..."                                         "But baby"
          Bm       Em      Am     G       D       G                D7
e|------2--------7---------5-------3------5-------5----------------5-----------|
B|------3--------8---------5-------3------7-------5----------------7-----------|
G|------4--------9---------5-------4------7-------7----------------5-----------|
D|------4--------9---------7-------5------7-------5----------------7-----------|
A|------2--------7---------7-------5------5-------5----------------5-----------|
E|-------------------------5-------3--------------3----------------------------|

He then goes back to the chords played in the first verse and ends on a G.

This was my first tab so I apologize if it sounds really off to you. In any case
it is a great song that I first heard jack play at a concert in Toronto a year
before "In between Dreams" came out. Hope you enjoy playing it!

Soumu
Comments