Jack Johnson - Banana Pancakes Chords & Tabs

 

Banana Pancakes Chords & Tabs

Jack Johnson Chords & Tabs

Version: 1 Type: Bass Tab 0 ratings
1 star 2 stars 3 stars 4 stars 5 stars
comments

Banana Pancakes Bass Tab

   
Artist: Jack Johnson
Song:   Banana Pancakes
Album:  In Between Dreams
Tabbed by: Charlie (bassguitar116@yahoo.com)
Tuning: E-A-D-G

(00:17)
G|-----|
D|-0-0-|
A|-----|
E|-----|

G|------------------|
D|----0-0-----------|  REPEAT
A|-------0-0-3-3----|   4x'S
E|-3-3--------------|

G|-------------------------------------------------------|
D|----------0-------------0-------------0-------------0-0|
A|-0-00-00-2-20----------2-20--0-00-00-2-20--------------|
E|-------------303-33-33-----30------------303-33-33-3---|

G|------------------|
D|----0-0-----------|  REPEAT
A|-------0-0-3-3----|   4x'S
E|-3-3--------------|

G|---------------------------------------------------------------------|
D|----------0-------------0-------------0------------------------------|
A|-0-00-00-2-20----------2-20--0-00-00-2-20---------------0-00-00-00-0-|
E|-------------303-33-33-----30------------303-33-33-33-3--------------|
[ Tab from: http://www.guitartabs.cc/tabs/j/jack_johnson/banana_pancakes_btab.html ]
G|-----------------------------------------------------------------|
D|---------------------------------------2-22-22-22-2-0-00-00-00-0-|
A|--------------0-00-00-00-0---------------------------------------|
E|-3-33-33-33-3--------------3-33-33-33-3--------------------------|

G|------------------------------------------------------------------------|
D|--------------0-00-00-00-0--------------2-2-1-1-----------5-55-5--------|
A|-0-00-00-00-0--------------2-22-22-22-2---------3-33-33-3--------5-55-5-|
E|------------------------------------------------------------------------|

G|--------------|
D|-5-55-55-5-0-0|
A|--------------|
E|--------------|

G|------------------|
D|----0-0-----------|  REPEAT
A|-------0-0-3-3----|   4x'S
E|-3-3--------------|


G|---------------------------------------------------------------------|
D|----------0-------------0-------------0--------------------------2---|
A|-0-00-00-2-20----------2-20--0-00-00-2-20---------------0-00-00-0--0-|
E|-------------303-33-33-----30------------303-33-33-33-3--------------|

G|------------------------------|
D|------------------------0-0---|
A|--------------0-00-00-0-------|
E|-3-33-33-33-3---------------3-|
Comments