Jack Johnson - Bad Fish Chords & Tabs

 

Bad Fish Chords & Tabs

Jack Johnson Chords & Tabs

Version: 3 Type: Tab 0 ratings
1 star 2 stars 3 stars 4 stars 5 stars
comments

Bad Fish Tab

   
Artist: Jack Johnson
Song: Badfish (Sublime Cover)
Album: Look at All the Love We Found: A Tribute To Sublime

Standard Tuning - E A D G B E

Most of this these tabs are from the other tabs on this site so I don't take credit for it.
So the parts from other tabs that you see I don't take credit for.

Note: Strumming is not tabbed and it's only Badfish not Boss DJ.



Intro:
      F                 Gm        D#sus2                F
e|-1--5-5h6p5-3-1h3p1---3---------6----------------------1-| 
G|-1-----------------3--3---------6----------------------1-| 
B|-2--------------------3---------8-------3--3-3h5p3-----2-| (x1)
D|-3--------------------5---------8---3/5------------5---3-| 
A|-3--------------------5---------6----------------------3-| 
E|-1--------------------3--------------------------------1-|

Verse:

"When you grab a hold of me..."

   F              Gm             D#sus2         F
e|-1--------------3--------------6--------------1-| 
G|-1--------------3--------------6--------------1-| 
B|-2--------------3--------------8--------------2-| (x2)
D|-3--------------5--------------8--------------3-| 
A|-3--------------5--------------6--------------3-| 
E|-1--------------3-----------------------------1-|

Pre-Chorus:

"Two pints of booze..."

   F              Gm             A#             F
e|-1--------------3--------------6--------------1-| 
G|-1--------------3--------------6--------------1-| 
B|-2--------------3--------------7--------------2-| (x1)
D|-3--------------5--------------8--------------3-| 
A|-3--------------5--------------8--------------3-| 
E|-1--------------3--------------6--------------1-|

Chorus: (x4)

"Ain't got no money to spend..."

   A#             F  
e|-6---------------1---------------| 
G|-6---------------1---------------| 
B|-7---------------2---------------| (x3)
D|-8---------------3---------------| 
A|-8---------------3---------------| 
E|-6---------------1---------------|

"Won't somebody get me off of this reef..."
[ Tab from: http://www.guitartabs.cc/tabs/j/jack_johnson/bad_fish_tab_ver_3.html ]
  A#              Gm 
e|-6--------------10---------------| 
G|-6--------------11---------------| 
B|-7--------------12---------------| (x1)
D|-8--------------12---------------| 
A|-8--------------10---------------| 
E|-6-------------------------------|

Interlude: (Not sure if this part is right)

"And baby your a big blue whale..."

   F              Gm 
e|-1--------------10---------------| 
G|-1--------------11---------------| 
B|-2--------------12---------------| (x1)
D|-3--------------12---------------| 
A|-3--------------10---------------| 
E|-1-------------------------------|

"I'll grab the reef when all duck diving fails..."

   F              F 
e|----------------1----------------| 
G|----------------1----------------| 
B|----------------2----------------| (x1)
D|-3--------------3----------------| 
A|-3--------------3----------------| 
E|-1--------------1----------------|

"And I can swim but I wish I had never learned..."

   F              Gm 
e|-1--------------10---------------| 
G|-1--------------11---------------| 
B|-2--------------12---------------| (x1)
D|-3--------------12---------------| 
A|-3--------------10---------------| 
E|-1-------------------------------|

"Cuz the water’s too polluted with germs..."

   F              F 
e|----------------1----------------| 
G|----------------1----------------| 
B|----------------2----------------| (x1)
D|-3--------------3----------------| 
A|-3--------------3----------------| 
E|-1--------------1----------------|

Pre-Chorus:

"Dive deep when its ten feet overhead..."

   F              Gm             A#             F
e|-1--------------3--------------6--------------1-| 
G|-1--------------3--------------6--------------1-| 
B|-2--------------3--------------7--------------2-| (x1)
D|-3--------------5--------------8--------------3-| 
A|-3--------------5--------------8--------------3-| 
E|-1--------------3--------------6--------------1-|

Chorus: (x4)

"Ain't got no quarrels with god..."

   A#             F  
e|-6---------------1---------------| 
G|-6---------------1---------------| 
B|-7---------------2---------------| (x3)
D|-8---------------3---------------| 
A|-8---------------3---------------| 
E|-6---------------1---------------|

"Won't somebody get me off of this reef..."

  A#              Gm 
e|-6--------------10---------------| 
G|-6--------------11---------------| 
B|-7--------------12---------------| (x1)
D|-8--------------12---------------| 
A|-8--------------10---------------| 
E|-6-------------------------------|
Comments