Jack Johnson - Angel Chords & Tabs

 

Angel Chords & Tabs

Jack Johnson Chords & Tabs

Version: 2 Type: Tab 0 ratings
1 star 2 stars 3 stars 4 stars 5 stars
comments

Angel Tab

   
This is the 100% correct version. You can hear Jack playing the open strings.So use the capo.


Capo 3rd tret

Verse
C                     C/B                     Am                        F
e-----------------------------------------------------------------------------|
B-----------1--1--1---------1--1--1------------1--1--1----------2--2--2-------|
G-----------0--0--0---------0--0--0------------2--2--2----------3--3--3-------|
D------ ----2--2--2------ ---0--0--0------------2--2--2----------3--3--3------|
A-------3----------------2------------------0---------------------------------|
E------------------------------------------------------------1----------------|


Dm                     G                   C
e------ ----1--1--1-----------------------------------------------------------|
B----------3--3--3----------0--0--0------ -----1--1--1-------1-------1--1-----|
G----------2--2--2----------0--0--0-----------0--0--0-------0-------0--0------|
D-------0-------------------0--0--0-----------2--2--2-------0--h-2--2--2------|
A------------------------2-----------------3----------------3-----------------|
E-----------------------------------------------------------------------------|

[ Tab from: http://www.guitartabs.cc/tabs/j/jack_johnson/angel_tab_ver_2.html ]
Bridge Part 1                                                                Part 2
Dm           G           (2x)           C          C/B            Am      (3x)
e---------1--1--1------3--3--3-----------------------------------------------|
B---------3--3--3------0--0--0-----------1--1----1--1----1--1----------------|
G---------2--2---------0--0--0-----------0--0----0--0----2--2----------------|
D----------------------0--0--0-----------2--2----0--0----2--2----------------|
A----------------------2--2--2-----------3--3----2--2----0--0----------------|
E----------------------------------------------------------------------------|


Outro
                            F                       Dm                      C
e---------1--1--------1--1---------0----------------------------------------|
B---------1--1--------3--3---------1----------------------------------------|
G---------2--2--------2--2---------0----------------------------------------|
D---------3--3--------0--0---------2----------------------------------------|
A---------3--3--------X--X---------3----------------------------------------|
E---------1--1--------X--X---------X----------------------------------------|


Rate this!!
Tabbed by travisjones
Comments