Jack Johnson - Angel Chords & Tabs

 

Angel Chords & Tabs

Jack Johnson Chords & Tabs

Version: 7 Type: Chords 0 ratings
1 star 2 stars 3 stars 4 stars 5 stars
comments

Angel Chords

   
Hey fellas. This is the tab to Jack Johnson's Angel, written based off
of the MV, not the album version or any live performances.

I'll start off with the chords and the lyrics.

D    x5777x
D/E# x4777x
Bm   x2443x
G    230002
Em   022000
A    003330

In standard tuning.

Intro:
D - D/E# - Bm - G - Em - A

Verse:

(A)          D      D/E#
I've got an angel

                      Bm     G
She doesn't wear any wings

             Em 
She wears a heart that could melt my own

              A
She wears a smile that could make me

       D
Wanna sing


                D       D/E#
She gives me presents

                    Bm      G
With her presence alone

              Em
She gives me everything I could wish for

              A
She gives me kisses on the lips

                 D
Just for coming home


               D      D/E#
She can make angels

                         Bm      G
I've seen it with my own eyes

                  Em
You've got to be careful when you've got good love

             A
'Cause them angels will just keep on

     D
Multiplying



Bridge:

     Em                          A  
But you're so busy changing the world

          Em                               A
Just one smile and you could change all of mine



Outro:

    D             D/E#
We share the same soul

 Bm
Oh oh oh ohh..

    D             D/E#
We share the same soul

 Bm
Oh oh oh ohh..

    D             D/E#
We share the same soul

 Bm
Oh oh oh ohh..

 Em
Oh oh oh ohh..

 G        D
Mmm mm mm mmm..


-----------------------------------------------------------------------------


And here is the Tab.

The pattern is pretty basic,

  strum down

  muted note
  strum down


  muted note
  strum down

The muted chords(x's), can be played by lifting all your fingers slightly off
the strings, yet still applying minor pressure. Then, using your forefinger
and middle finger's nails, strum downwards,resulting in a "clicking" sound.

 The non-barred chords(G, Em, and A), have different ways of muting them.

 One way would be to change the position of one of your fingers to lay
 across the entire six strings, which would mute the chord.

   This can be done in a G by just laying your middle finger flat down
   from it's position and slightly releasing your other finger on the high e string.

   In an Em, you would have to move the middle finger up from it's position to
   lay across the strings, and then return to it's original position.

   In an A, just slightly release your middle finger, ring finger, and pinkie
   from their positions and lay your index across the first fret to mute.

   Alternatively, with your right hand, you can place the bottom part of your hand
   across the strings while you strum with your nails, also creating the muted sound.

Experiment to your own liking.


Note on the lyrics:
   I've placed the key words in the song at or between certain notes, try to
   read the lyrics diagonally. The first letter of the first word in a fragment
   corresponds to the note directly above it. Sorry if it can be confusing.



Intro

            
      D               D/E#            Bm              G

e-----x---x-x----x-x--x---x-x----x-x--x---x-x----x-x--3---x-3----x-3----|
B-----7---x-7----x-7--7---x-7----x-7--3---x-3----x-3--0---x-0----x-0----|
G-----7---x-7----x-7--7---x-7----x-7--4---x-4----x-4--0---x-0----x-0----|
D-----7---x-7----x-7--7---x-7----x-7--4---x-4----x-4--0---x-0----x-0----|
A-----5---x-5----x-5--4---x-4----x-4--2---x-2----x-2--2---x-2----x-2----|
E-----x---x-x----x-x--x---x-x----x-x--x---x-x----x-x--3---x-3----x-3----|

      Em              A                 D

e-----0---x-0----x-0--0---x-0----x-0--0-----x-x----x-x---x---x-x----x-x-|
B-----0---x-0----x-0--3---x-3----x-3--3/7---x-7----x-7---7---x-7----x-7-|
G-----0---x-0----x-0--3---x-3----x-3--3/7---x-7----x-7---7---x-7----x-7-|
D-----2---x-2----x-2--3---x-3----x-3--3/7---x-7----x-7---7---x-7----x-7-|
A-----2---x-2----x-2--0---x-0----x-0--0/5---x-5----x-5-4/5---x-5----x-5-|
E-----0---x-0----x-0--0---x-0----x-0--0-----x-x----x-x---x---x-x----x-x-|

                                                                 I've
                                                                    got an..

Verse


      D               D/E#            Bm              G

e-----x---x-x----x-x--x---x-x----x-x--x---x-x----x-x--3---x-3----x-3----|
B-----7---x-7----x-7--7---x-7----x-7--3---x-3----x-3--0---x-0----x-0----|
G-----7---x-7----x-7--7---x-7----x-7--4---x-4----x-4--0---x-0----x-0----|
D-----7---x-7----x-7--7---x-7----x-7--4---x-4----x-4--0---x-0----x-0----|
A-----5---x-5----x-5--4---x-4----x-4--2---x-2----x-2--2---x-2----x-2----|
E-----x---x-x----x-x--x---x-x----x-x--x---x-x----x-x--3---x-3----x-3----|

      angel..                 she..   wings..                 she..              
                                 wear..                          wears a..          

      Em              A                 D
[ Tab from: http://www.guitartabs.cc/tabs/j/jack_johnson/angel_crd_ver_7.html ]
e-----0---x-0----x-0--0---x-0----x-0--0-----x-x----x-x---x---x-x----x-x-|
B-----0---x-0----x-0--3---x-3----x-3--3/7---x-7----x-7---7---x-7----x-7-|
G-----0---x-0----x-0--3---x-3----x-3--3/7---x-7----x-7---7---x-7----x-7-|
D-----2---x-2----x-2--3---x-3----x-3--3/7---x-7----x-7---7---x-7----x-7-|
A-----2---x-2----x-2--0---x-0----x-0--0/5---x-5----x-5-4/5---x-5----x-5-|
E-----0---x-0----x-0--0---x-0----x-0--0-----x-x----x-x---x---x-x----x-x-|

      heart..    wears a         wanna                           she
          melt..      smile..         sing..                        gives me..
                          make me..

      D               D/E#            Bm              G

e-----x---x-x----x-x--x---x-x----x-x--x---x-x----x-x--3---x-3----x-3----|
B-----7---x-7----x-7--7---x-7----x-7--3---x-3----x-3--0---x-0----x-0----|
G-----7---x-7----x-7--7---x-7----x-7--4---x-4----x-4--0---x-0----x-0----|
D-----7---x-7----x-7--7---x-7----x-7--4---x-4----x-4--0---x-0----x-0----|
A-----5---x-5----x-5--4---x-4----x-4--2---x-2----x-2--2---x-2----x-2----|
E-----x---x-x----x-x--x---x-x----x-x--x---x-x----x-x--3---x-3----x-3----|

      presents..              with her..                      she
                                 presence                        gives me..
                                     alone..

      Em              A                 D

e-----0---x-0----x-0--0---x-0----x-0--0-----x-x----x-x---x---x-x----x-x-|
B-----0---x-0----x-0--3---x-3----x-3--3/7---x-7----x-7---7---x-7----x-7-|
G-----0---x-0----x-0--3---x-3----x-3--3/7---x-7----x-7---7---x-7----x-7-|
D-----2---x-2----x-2--3---x-3----x-3--3/7---x-7----x-7---7---x-7----x-7-|
A-----2---x-2----x-2--0---x-0----x-0--0/5---x-5----x-5-4/5---x-5----x-5-|
E-----0---x-0----x-0--0---x-0----x-0--0-----x-x----x-x---x---x-x----x-x-|

      everything..    kisses     coming..                           she can
          I could..       on the      home..                          make..
                 gives..    lips..

      D               D/E#            Bm              G

e-----x---x-x----x-x--x---x-x----x-x--x---x-x----x-x--3---x-3----x-3----|
B-----7---x-7----x-7--7---x-7----x-7--3---x-3----x-3--0---x-0----x-0----|
G-----7---x-7----x-7--7---x-7----x-7--4---x-4----x-4--0---x-0----x-0----|
D-----7---x-7----x-7--7---x-7----x-7--4---x-4----x-4--0---x-0----x-0----|
A-----5---x-5----x-5--4---x-4----x-4--2---x-2----x-2--2---x-2----x-2----|
E-----x---x-x----x-x--x---x-x----x-x--x---x-x----x-x--3---x-3----x-3----|

      angels..                I've seen it                    you've
                                 with my own..                   gotta be..
                                      eyes..

      Em              A                 D

e-----0---x-0----x-0--0---x-0----x-0--0-----x-x----x-x---x---x-x----x-x-|
B-----0---x-0----x-0--3---x-3----x-3--3/7---x-7----x-7---7---x-7----x-7-|
G-----0---x-0----x-0--3---x-3----x-3--3/7---x-7----x-7---7---x-7----x-7-|
D-----2---x-2----x-2--3---x-3----x-3--3/7---x-7----x-7---7---x-7----x-7-|
A-----2---x-2----x-2--0---x-0----x-0--0/5---x-5----x-5-4/5---x-5----x-5-|
E-----0---x-0----x-0--0---x-0----x-0--0-----x-x----x-x---x---x-x----x-x-|

      careful    love..        keep on                              but..
          when..  'cause them    multiplying..
                      angels..
                          will just..

Bridge:

      Em              A                 

e-----0---x-0----x-0--0---x-0----x-0---|
B-----0---x-0----x-0--3---x-3----x-3---|
G-----0---x-0----x-0--3---x-3----x-3---|
D-----2---x-2----x-2--3---x-3----x-3---|
A-----2---x-2----x-2--0---x-0----x-0---|
E-----0---x-0----x-0--0---x-0----x-0---|

      you're.. changing..        just one..
          busy   the world..

      Em              A                 

e-----0---x-0----x-0--0---x-0----x-0---|
B-----0---x-0----x-0--3---x-3----x-3---|
G-----0---x-0----x-0--3---x-3----x-3---|
D-----2---x-2----x-2--3---x-3----x-3---|
A-----2---x-2----x-2--0---x-0----x-0---|
E-----0---x-0----x-0--0---x-0----x-0---|

      smile..  change              we..  
          you..  all of          
                      mine..

Outro:

      D            D/E#        Bm

e-----x---x--------x---x-------x---x-x----x-x---|
B-----7---x--------7---x-------3---x-3----x-3---|
G-----7---x--------7---x-------4---x-4----x-4---|
D-----7---x--------7---x-------4---x-4----x-4---|
A-----5---x--------4---x-------2---x-2----x-2---|
E-----x---x--------x---x-------x---x-x----x-x---|

      share..      soul..      ohh oh       we..
          same..                   oh oh..

      D            D/E#        Bm

e-----x---x--------x---x-------x---x-x----x-x---|
B-----7---x--------7---x-------3---x-3----x-3---|
G-----7---x--------7---x-------4---x-4----x-4---|
D-----7---x--------7---x-------4---x-4----x-4---|
A-----5---x--------4---x-------2---x-2----x-2---|
E-----x---x--------x---x-------x---x-x----x-x---|

      share..      soul..      ohh oh       we..
          same..                   oh oh..

      D            D/E#        Bm

e-----x---x--------x---x-------x---x-x---|
B-----7---x--------7---x-------3---x-3---|
G-----7---x--------7---x-------4---x-4---|
D-----7---x--------7---x-------4---x-4---|
A-----5---x--------4---x-------2---x-2---|
E-----x---x--------x---x-------x---x-x---|

      share..      soul..      ohh oh     
          same..                   oh oh..

      G              A

e-----3---x-3--------0---x-------|
B-----0---x-0--------3---x-3/7---|
G-----0---x-0--------3---x-3/7---|
D-----0---x-0--------3---x-3/7---|
A-----2---x-2--------0---x--/5---|
E-----3---x-3--------0---x-------|
 
      ohh oh         Mmm mm
          oh oh..        mm mmm...



Comments, questions, and corrections are greatly appreciated!
Questions? Email me at rz.amtf@gmail.com.

Aloha!
Comments