Jack Johnson - Angel Chords & Tabs

 

Angel Chords & Tabs

Jack Johnson Chords & Tabs

Version: 1 Type: Chords 0 ratings
1 star 2 stars 3 stars 4 stars 5 stars
comments

Angel Chords

   
------------------------------------------------------------------------------
			     Angel - Jack Johnson
------------------------------------------------------------------------------
Tabbed by: Marco Basaglia
Email: mbasaglia@gmail.com

Artist - Jack Johnson
Song   - Angels
Album  - Sleep Through The Static

My first tab. I was in a hurry to finish it, so please contact me if you have any
suggestions on how to improve or correct it. Enjoy!

Chords:

  Eb      Ebmaj7   Cmin    Ab     Fmin  (Use for Bridge and Outro)   Bmaj
e|-------------------3------4-------1----------8------------------------------|
B|---8-------8-------4------4-------1----------9----------------------3-------|
G|---8-------8-------5------5-------1-----or---10---------------------3-------|
D|---8-------8-------5------6-------3----------10---------------------3-------|
A|---6-------5-------3------6-------3----------8----------------------1-------|
E|--------------------------4-------1-----------------------------------------|


Intro: Eb  Ebmaj7 Cmin Ab Fmin Bmaj Eb 
[ Tab from: http://www.guitartabs.cc/tabs/j/jack_johnson/angel_crd.html ]
             Eb  
Iíve got an angel
  Ebmaj7             Cmaj     Ab   
She doesnít wear any wings
             Fmin    
She wears a heart that compelled my own
             Bmaj                      Eb 
She wears a smile that makes you wanna sing

[repeat 3 times]

      Fmin                     Bmaj
But youíre so busy changing the world
      Fmin                     Bmaj
Just one smile can change all of mine
                   Eb
We share the same soul
  Ebmaj7      Bmaj
Oh oh oh oh oh ohhh
  Ebmaj7      Bmaj
We Share the same soul
  Ebmaj7      Bmaj
Oh oh oh oh oh ohhh
  Ebmaj7      Bmaj
We Share the same soul
  Ebmaj7      Bmaj
Oh oh oh oh oh ohhh
        Abmaj      
Oh oh oh oh oh ohhh
  Fmin       Ebmaj
Umm umm umm uhhhhhhmm 

------------------------------------------------------------------------------
Lyrics:
Iíve got an angel
She doesnít wear any wings
She wears a heart that compelled my own
She wears a smile that makes you wanna sing
She gives me presents
Where the presents are loans
She gives me everything I could wish for
She gives me kisses on the lips just for coming home

She could make angels
Iíve seen it with my own eyes
You gotta be careful when you *something* up

Cause the angels will just keep on multiplying

But youíre so busy changing the world
Just one smile can change all of mine
We share the same soul
Oh oh oh oh oh ohhh
We Share the same soul
Oh oh oh oh oh ohhh
We Share the same soul
Oh oh oh oh oh ohhh
Oh oh oh oh oh ohhh
Umm umm umm uhhhhhhmm 
Comments