Jack Johnson - All At Once Chords & Tabs

 

All At Once Chords & Tabs

Jack Johnson Chords & Tabs

Version: 1 Type: Tab 0 ratings
1 star 2 stars 3 stars 4 stars 5 stars
comments

All At Once Tab

   
-----------------------------------------------------------------------------
			  ALL AT ONCE - Jack Johnson
-----------------------------------------------------------------------------
Tabbed by: mshafer
Email: michaelshafer28@gmail.com

Tuning: E A D G B E

From the album: Sleep Through The Static
Listen to the song for timing and rhythm



- Intro -

   Am                                  C
e|--0----------------0--------------|--0----------------0--------------|
B|--1----------1-----------1-----1--|--1----------1-----------1-----1--|
G|--2-------2-----0-----------------|--0-------2-----0-----------------|
D|--2-------------------2-----0-----|--2-------------------2-----0-----|
A|--0-------------------------------|--3-------------------------------|
E|--x-------------------------------|--x-------------------------------|

    F                   Dm             C
e|--1--------------------1-----1----|--0-------------------------------|
B|--1--------------------3-----3----|--1-------------------------------|
G|--2--------------------2----------|--0-------------------------------|
D|--3--------------------0----------|--2-------------------------------|
A|--3--------------------x----------|--3-------------------------------|
E|--1--------------------x----------|--x-------------------------------|



- Verse 1 -

   Am                                  C
e|--0----------------0--------------|--0----------------0--------------|
B|--1----------1-----------1-----1--|--1----------1-----------1-----1--|
G|--2-------2-----0-----------------|--0-------2-----0-----------------|
D|--2-------------------2-----0-----|--2-------------------2-----0-----|
A|--0-------------------------------|--3-------------------------------|
E|--x-------------------------------|--x-------------------------------|

All at once, the world can overwhelm me, there's almost nothing you could


    F                   Dm             C
e|--1--------------------1-----1----|--0-------------------------------|
B|--1--------------------3-----3----|--1-------------------------------|
G|--2--------------------2----------|--0-------------------------------|
D|--3--------------------0----------|--2-------------------------------|
A|--3--------------------x----------|--3-------------------------------|
E|--1--------------------x----------|--x-------------------------------|

...tell me, that could ease my mind


   Am                                  C
e|--0----------------0--------------|--0----------------0--------------|
B|--1----------1-----------1-----1--|--1----------1-----------1-----1--|
G|--2-------2-----0-----------------|--0-------2-----0-----------------|
D|--2-------------------2-----0-----|--2-------------------2-----0-----|
A|--0-------------------------------|--3-------------------------------|
E|--x-------------------------------|--x-------------------------------|

Which way will you run? When it's always all around you. And the feeling

lost and...

    F                   Dm             C
e|--1--------------------1-----1----|--0-------------------------------|
B|--1--------------------3-----3----|--1-------------------------------|
G|--2--------------------2----------|--0-------------------------------|
D|--3--------------------0----------|--2-------------------------------|
A|--3--------------------x----------|--3-------------------------------|
E|--1--------------------x----------|--x-------------------------------|

...found you again. A feeling that we have no control


   Am                                  C
e|--0----------------0--------------|--0----------------0--------------|
B|--1----------1-----------1-----1--|--1----------1-----------1-----1--|
G|--2-------2-----0-----------------|--0-------2-----0-----------------|
D|--2-------------------2-----0-----|--2-------------------2-----0-----|
A|--0-------------------------------|--3-------------------------------|
E|--x-------------------------------|--x-------------------------------|

Around the sun, some say it's gonna be the new hell
Some say it's still too early to tell


    F                   Dm             C
e|--1--------------------1-----1----|--0-------------------------------|
B|--1--------------------3-----3----|--1-------------------------------|
G|--2--------------------2----------|--0-------------------------------|
D|--3--------------------0----------|--2-------------------------------|
A|--3--------------------x----------|--3-------------------------------|
E|--1--------------------x----------|--x-------------------------------|

Some say, it really ain't no myth at all




- Verse 2 -

    Dm                       G
e|----------1-------------|----------3-------------|
B|-----3----------3----0--|-----0----------0----0--|
G|-------2----------2-----|-------0----------0-----|
D|--0---------------------|------------------------|
A|------------------------|------------------------|
E|------------------------|--3---------------------|

Keep asking ourselves, are we really...


    C                        F
e|----------0-------------|----------1-------------|
B|-----1----------3p1-----|-----1----------1----1--|
G|-------0-------------0--|-------2----------2-----|
D|------------------------|------------------------|
A|--3---------------------|------------------------|
E|------------------------|--1---------------------|

...strong enough?


    Dm                       G
e|----------1-------------|----------3-------------|
B|-----3----------3----0--|-----0----------0----0--|
G|-------2----------2-----|-------0----------0-----|
D|--0---------------------|------------------------|
A|------------------------|------------------------|
E|------------------------|--3---------------------|

There're so many things, that we got...


    C                        F
e|----------0-------------|----------1----------1--|-------1-------------|
B|-----1----------3p1-----|-----1----------1-------|--1----------1----1--|
G|-------0-------------0--|-------2----------2-----|----2----------2-----|
D|------------------------|------------------------|---------------------|
A|--3---------------------|------------------------|---------------------|
E|------------------------|--1---------------------|---------------------|

...too proud of, too proud...


    Dm
e|----------1----------1--|-------1----------------|
B|-----3----------3-------|--3----------3----0-----|
G|-------2----------2-----|----2----------2--------|
D|--0---------------------|------------------------|
A|------------------------|------------------------|
E|------------------------|------------------------|

...of, too proud...


    G6
e|----------0----------0--|-------0----------------|
B|-----3----------3-------|--3----------3----3-----|
G|-------0----------0-----|----0----------0--------|
D|------------------------|------------------------|
A|------------------------|------------------------|
E|--3---------------------|------------------------|

...of



- Verse 3 -

    C                          G6
e|----------0---------------|----------0---------------|
B|-----1-----------1-----1--|-----1-----------1-----1--|
G|-------0-----0h2----0-----|-------0-----0h2----0-----|
D|--------------------------|--------------------------|
A|--3-----------------------|--------------------------|
E|--------------------------|--3-----------------------|

I want to take the preconceived, out from underneath
your feet, we could...


    F                          C
e|----------1---------------|----------0---------------|
B|-----1-----------1-----1--|-----1-----------1-----1--|
G|-------2-----0h2----0-----|-------0------------0-----|
D|--------------------------|-------------0h2----------|
A|--------------------------|--3-----------------------|
E|--1-----------------------|--------------------------|

...shake it off, and instead we'll plant some seeds


    C                          G6
e|----------0---------------|----------0---------------|
B|-----1-----------1-----1--|-----1-----------1-----1--|
G|-------0-----0h2----0-----|-------0-----0h2----0-----|
D|--------------------------|--------------------------|
A|--3-----------------------|--------------------------|
E|--------------------------|--3-----------------------|

We'll watch them as they grow, and with each new beat
From your...


    F                          C
e|----------1---------------|----------0---------------|
B|-----1-----------1-----1--|-----1-----------1-----1--|
G|-------2-----0h2----0-----|-------0------------0-----|
D|--------------------------|-------------0h2----------|
A|--------------------------|--3-----------------------|
E|--1-----------------------|--------------------------|

...heart the roots grew deeper
The branches, well they reach for what?



- Verse 4 -
[ Tab from: http://www.guitartabs.cc/tabs/j/jack_johnson/all_at_once_tab.html ]
    F
e|----------1----------1--|-------1-------------|
B|-----1----------1-------|--1----------1----1--|
G|-------2----------2-----|----2----------2-----|
D|------------------------|---------------------|
A|------------------------|---------------------|
E|--1---------------------|---------------------|

Nobody really...


    C
e|----------0----------0--|-------0----------0--|
B|-----1----------1-------|--1----------1-------|
G|-------0----------0-----|----0----------0-----|
D|------------------------|---------------------|
A|--3---------------------|---------------------|
E|------------------------|---------------------|

...knows


    F
e|----------1----------1--|-------1-------------|
B|-----1----------1-------|--1----------1----1--|
G|-------2----------2-----|----2----------2-----|
D|------------------------|---------------------|
A|------------------------|---------------------|
E|--1---------------------|---------------------|

But underneath it all, there's this heart all...


    C
e|----------0----------0--|-------0----------0--|
B|-----1----------1-------|--1----------1-------|
G|-------0----------0-----|----0----------0-----|
D|------------------------|---------------------|
A|--3---------------------|---------------------|
E|------------------------|---------------------|

...alone


    F                        Fm
e|----------1----------1--|----------1---4p1---------|
B|-----1----------1-------|-----1------------1----1--|
G|-------2----------2-----|-------1------------1-----|
D|------------------------|--------------------------|
A|------------------------|--3-----------------------|
E|--1---------------------|--1-----------------------|

What about when it's gone?


    C                        E7
e|----------0----------0--|----------0-------------|
B|-----1----------1-------|-----0----------0----0--|
G|-------0----------0-----|-------1----------1-----|
D|------------------------|--0---------------------|
A|--3---------------------|--2---------------------|
E|------------------------|--0---------------------|

It really won't be so long, sometimes it...


    F                        G
e|----------1----------1--|------------------------|
B|-----1----------1-------|------------------------|
G|-------2----------2-----|------------------------|
D|------------------------|------------------------|
A|------------------------|------------------------|
E|--1---------------------|--3---------------------|

...feels like a heart, is no place to be singing from it all



- Interlude -

    C                          G6
e|----------0---------------|----------0---------------|
B|-----1-----------1-----1--|-----1-----------1-----1--|
G|-------0-----0h2----0-----|-------0-----0h2----0-----|
D|--------------------------|--------------------------|
A|--3-----------------------|--------------------------|
E|--------------------------|--3-----------------------|

    F                          C
e|----------1---------------|----------0---------------|
B|-----1-----------1-----1--|-----1-----------1-----1--|
G|-------2-----0h2----0-----|-------0------------0-----|
D|--------------------------|-------------0h2----------|
A|--------------------------|--3-----------------------|
E|--1-----------------------|--------------------------|


    C                          G6
e|----------0---------------|----------0---------------|
B|-----1-----------1-----1--|-----1-----------1-----1--|
G|-------0-----0h2----0-----|-------0-----0h2----0-----|
D|--------------------------|--------------------------|
A|--3-----------------------|--------------------------|
E|--------------------------|--3-----------------------|

    F                          C
e|----------1---------------|----------0---------------|
B|-----1-----------1-----1--|-----1-----------1-----1--|
G|-------2-----0h2----0-----|-------0------------0-----|
D|--------------------------|-------------0h2----------|
A|--------------------------|--3-----------------------|
E|--1-----------------------|--------------------------|



- Verse 5 -

    C                          G6
e|----------0---------------|----------0---------------|
B|-----1-----------1-----1--|-----1-----------1-----1--|
G|-------0-----0h2----0-----|-------0-----0h2----0-----|
D|--------------------------|--------------------------|
A|--3-----------------------|--------------------------|
E|--------------------------|--3-----------------------|

There's a world we've never seen
There's still hope between the dreams


    F                          C
e|----------1---------------|----------0---------------|
B|-----1-----------1-----1--|-----1-----------1-----1--|
G|-------2-----0h2----0-----|-------0------------0-----|
D|--------------------------|-------------0h2----------|
A|--------------------------|--3-----------------------|
E|--1-----------------------|--------------------------|

The weight of it all could blow away with a breeze


    C                          G6
e|----------0---------------|----------0---------------|
B|-----1-----------1-----1--|-----1-----------1-----1--|
G|-------0-----0h2----0-----|-------0-----0h2----0-----|
D|--------------------------|--------------------------|
A|--3-----------------------|--------------------------|
E|--------------------------|--3-----------------------|

But if you're waiting on the wind, don't forget to breathe
Because as the...


    F                          C
e|----------1---------------|----------0---------------|
B|-----1-----------1-----1--|-----1-----------1-----1--|
G|-------2-----0h2----0-----|-------0------------0-----|
D|--------------------------|-------------0h2----------|
A|--------------------------|--3-----------------------|
E|--1-----------------------|--------------------------|

...darkness gets deeper, we're sinking so we reach for love



- Verse 6 -

    F 
e|----------1----------1--|-------1-------------|
B|-----1----------1-------|--1----------1----1--|
G|-------2----------2-----|----2----------2-----|
D|------------------------|---------------------|
A|------------------------|---------------------|
E|--1---------------------|---------------------|

At least something we can...

    C
e|----------0----------0--|-------0----------0--|
B|-----1----------1-------|--1----------1-------|
G|-------0----------0-----|----0----------0-----|
D|------------------------|---------------------|
A|--3---------------------|---------------------|
E|------------------------|---------------------|

...hold


    F
e|----------1----------1--|-------1-------------|
B|-----1----------1-------|--1----------1----1--|
G|-------2----------2-----|----2----------2-----|
D|------------------------|---------------------|
A|------------------------|---------------------|
E|--1---------------------|---------------------|

But I'll reach to you from where time just can't...


    C
e|----------0----------0--|-------0----------0--|
B|-----1----------1-------|--1----------1-------|
G|-------0----------0-----|----0----------0-----|
D|------------------------|---------------------|
A|--3---------------------|---------------------|
E|------------------------|---------------------|

...go


    F                        Fm
e|----------1----------1--|----------1---4p1---------|
B|-----1----------1-------|-----1------------1----1--|
G|-------2----------2-----|-------1------------1-----|
D|------------------------|--------------------------|
A|------------------------|--3-----------------------|
E|--1---------------------|--1-----------------------|

What about when it's gone?


    C                        E7
e|----------0----------0--|----------0-------------|
B|-----1----------1-------|-----0----------0----0--|
G|-------0----------0-----|-------1----------1-----|
D|------------------------|--0---------------------|
A|--3---------------------|--2---------------------|
E|------------------------|--0---------------------|

It really won't be so long, sometimes it...


    F                        G
e|----------1----------1--|------------------------|
B|-----1----------1-------|------------------------|
G|-------2----------2-----|------------------------|
D|------------------------|------------------------|
A|------------------------|------------------------|
E|--1---------------------|--3---------------------|

...feels like a heart, is no place to be singing from it all


- Outro -

    C                          G6
e|----------0---------------|----------0---------------|
B|-----1-----------1-----1--|-----1-----------1-----1--|
G|-------0-----0h2----0-----|-------0-----0h2----0-----|
D|--------------------------|--------------------------|
A|--3-----------------------|--------------------------|
E|--------------------------|--3-----------------------|

    F                          C
e|----------1---------------|--------------------------|
B|-----1-----------1-----1--|--------------------------|
G|-------2-----0h2----0-----|--0-----------------------|
D|--------------------------|--2-----------------------|
A|--------------------------|--3-----------------------|
E|--1-----------------------|--------------------------|



| /  slide up
| \  slide down
| h  hammer-on
| p  pull-off
| ~  vibrato
| +  harmonic
| x  Mute note
=============================================================================
Comments