Ja Rule - The Pledge Remix Chords & Tabs

 

The Pledge Remix Chords & Tabs

Ja Rule Chords & Tabs

Version: 1 Type: Tab 0 ratings
1 star 2 stars 3 stars 4 stars 5 stars
comments

The Pledge Remix Tab

Key:
h = Hammer On
p = Pull Off
() = Optional Note/Optional Execution

Guitar 1: (Listen for when to play)
Clean
E--------------------------------
B--------------------------------
G-5-(5h)6-5-(5h)8----------------
D--------------------------------
A--------------------------------
E--------------------------------
A--------------------------------

Guitar 2: (Play In Same Note Progression As Bass)
Clean
E--------------------------------
B-8--6--8-(8)-6------------------
G--------------------------------
D--------------------------------
A--------------------------------
E--------------------------------
A--------------------------------
[ Tab from: http://www.guitartabs.cc/tabs/j/ja_rule/the_pledge_remix_tab.html ]
Guitar 3: (Listen for when to play each part)
Clean
E-Part-One-|--Part-Two-|--Part-Three-----|--Part-Four------|--Part-Five---------
B---11p8---|----11h13--|-6p4h6p4h6p4h6p4-|-6-4-4(h)6-(6)---|--------------------
G----------|-----------|-----------------|-----------------|--------------------
D----------|-----------|-----------------|-Play-This-Once--|-xxxxxxxxxxxxxxxx---
A----------|-----------|-----------------|--But-Listen-----|-xxxxxxxxxxxxxxxx---
E----------|-----------|-----------------|--For-When-To----|-xxxxxxxxxxxxxxxx---
A----------|-----------|-----------------|----Play-It------|--------------------

Bassline:
Low/Medium Distortion
G--------------------------------
D--------------------------------
A--------------------------------
E--------------------------------
A-3--1--3-3-1--------------------

================================================================================
Optional Part Below
Guitar 4:(Play In Same Note Progression As Bass)
Low Distortion
E--------------------------------
B--------------------------------
G--------------------------------
D--------------------------------
A--------------------------------
E--3--1---3--3--1----------------
A--3--1---3--3--1----------------

________________________________________________________________________________
I know tab probably isn't perfect, but I don't have the CD yet...
"Bring Back Lead Guitar Playing"

God Bless,
Brandon
Comments