Ja Rule - Always On Time Chords & Tabs

 

Always On Time Chords & Tabs

Ja Rule Chords & Tabs

Version: 9 Type: Tab 0 ratings
1 star 2 stars 3 stars 4 stars 5 stars
comments

Always On Time Tab

   
STANDARD TUNING-

E---3--------3-----3--------|---3--------3-----3--------------
B---4--------4h6---4--------|---4--------4h6---4--------------
G---3--------3-----3--------|---3--------3-----3--------------
D---5--------5-----5--------|---5--------5-----5--------------
A---3----3--------------3---|---3----3--------------3---------
E---------------------------|---------------------------------
   Cm7                          Cm7
[ Tab from: http://www.guitartabs.cc/tabs/j/ja_rule/always_on_time_tab_ver_9.html ]
E---8--------8-----8--------|---10-------10----10-------------
B---9--------9h11--9--------|---11-------11h13-11-------------
G---8--------8-----8--------|---10-------10----10-------------
D---10-------10----10-------|---12-------12----12-------------
A---8----8--------------8---|---10---10-------------3---------
E---------------------------|---------------------------------
    Fm7                         Gm7


This is with out a doubt the way in which ja rules guitarist 
plays the riff through out the song
Comments