Ja Rule - Always On Time Chords & Tabs

 

Always On Time Chords & Tabs

Ja Rule Chords & Tabs

Version: 8 Type: Tab 0 ratings
1 star 2 stars 3 stars 4 stars 5 stars
comments

Always On Time Tab

I think this is the one you've been lookin' for!!
This goes on the whole song:
[ Tab from: http://www.guitartabs.cc/tabs/j/ja_rule/always_on_time_tab_ver_8.html ]
e|------x--x------------x-------x--x------------x-
b|------x--x------------x-------x--x------------x-
G|*-8---x--x--8h10-8----x---8---x--x--8h10-8----x-
D|*-8---x--x--8----8----x---8---x--x--8----8----x-
A|-(10)-x--x-(10)-(10)--x--(10)-x--x-(10)-(10)--x-
E|--8---x--x--8----8----x---8---x--x--8----8----x-
                                         
e---------------------------------------------|
b--9------9h11-9--------11-----11h13-11-------|
G--8------8----8--------10-----10----10----8-*|
D-(10)---(10)-(10)-----(12)---(12)--(12)---8-*|
A--8------8----8--------10-----10----10---(10)|
E------------------------------------------8--|

You can leave the notes between () away if you think they're
too difficult. The muted notes aren't necessary either.
Comments