Ja Rule - Always On Time Chords & Tabs

 

Always On Time Chords & Tabs

Ja Rule Chords & Tabs

Version: 5 Type: Tab 0 ratings
1 star 2 stars 3 stars 4 stars 5 stars
comments

Always On Time Tab

I got this from version one and changed it up a little bit to make it sound better. Hope you like it!


[ Tab from: http://www.guitartabs.cc/tabs/j/ja_rule/always_on_time_tab_ver_5.html ]
e|-------------------------------------------------|
B|-8-8h10-8----8-8h10-8----8-8h10-8----8-8h10-8----|
G|----------10----------10----------10----------10-|
D|-------------------------------------------------|
A|-------------------------------------------------|
E|-8-8---------------------8-8---------------------|

e|-------------------------------------------------------|
B|-9-9h11-9----9-9h11-9-----11-11h13-11----11-11h13-11---|
G|----------11----------11--------------13------------13-|
D|-------------------------------------------------------|
A|-8-8----------------------10-10------------------------|
E|-------------------------------------------------------|
Comments