J Church - Undisputed King Of Nothing Chords & Tabs

 

Undisputed King Of Nothing Chords & Tabs

J Church Chords & Tabs

Version: 1 Type: Bass Tab 0 ratings
1 star 2 stars 3 stars 4 stars 5 stars
comments

Undisputed King Of Nothing Bass Tab

   
Band : J-Church
Song : Undisputed King Of Nothing
Album : The Drama Of Alienation
Tabbed By : Paul Comrie-Thomson
E-Mail : p_comrie_thomson@users.basstabarchive.com
[ Tab from: http://www.guitartabs.cc/tabs/j/j_church/undisputed_king_of_nothing_btab.html ]
G:----------|-----------------------------------------------------------
D:----------|-----------------------------------------------------------
A:-55---22--|-----------------2222222222222222--------------------------
E:---55---33|-0000000000000000----------------333333333333-0-0-2-2-3-3-5

G:---|
D:---|
A:---|
E:-5-|

G:------------------------------|---|
D:------------------------------|---|
A:-5-5-555----------------------|-5-|
E:--------3-3-333-55-5555-3335-5|---|

Comments