Izzy Stradlin - Gotta Say Chords & Tabs

 

Gotta Say Chords & Tabs

Izzy Stradlin Chords & Tabs

Version: 1 Type: Tab 0 ratings
1 star 2 stars 3 stars 4 stars 5 stars
comments

Gotta Say Tab

   
---------------------------TABBED BY JOSE ALEJANDRO CHICA--------------------------------
"ChopAway.com - The Online Home Of Izzy Stradlin"


Gotta Say  
(Izzy Stradlin)

INTRO
 
repeat x4                        
------------------------3------|    
--2p0---0-1-1\3--1p0----3------|   
--1p0---0-2-2\4--2p0----0------|  
------2---------------2--------|  
-------------------------------|
-------------------------------|  



VERSE 1

G           C
 Got another phone call
G           C
 Tellin me the words
G           Em         A        D  Dsus2
 Got another story for me to learn

G             C
 Say the truth out walkin
G                   C
 Walked right out my door, 
G               Em               A           D  Dsus2  D  Dsus4  D   Dsus2  D
 I didn't try to follow, Cause I knew the score 


CHORUS

C                 D
Tell me what you got ta say
G                 Em
I see through you anyway
C                 D       G  D  Em   D      
I think you have underestimated me
 
    C                D
And tell me what you got ta say
G                Em
I see through it anyway
C                D
I think you have once again... 


INTRO X2



VERSE 2 (same chords as verse 1)

Never mind the weather, 
never mind your head
I know why you're callin on me here today

Things are goin fine now
Yeah all's well I'd say
The one thing that troubles me is When ya call my name 


CHORUS
[ Tab from: http://www.guitartabs.cc/tabs/i/izzy_stradlin/gotta_say_tab.html ]
Tell me what you got ta say
I see through you anyway
I think you have underestimated me
And tell me what you got ta say
I see through it anyway
I think you have once again


SOLO (use same chords as chorus)

--------------------------------------------------------------
--------------------------------------------------------------
--------------------------------------------------------------
-------------------5-7-7\9-7~~--5-7-7\9-9-9-9-10-9-9-7-5-5----
------0-2-2\5---5h7-------------------------------------------
-----3--------------------------------------------------------

--------------7-8-8\10-10-10--12-12-/10-10-/8-8-/7-7
-----------7-8--------------------------------------
--------7-9-----------------------------------------
-5-5-7\9--------------------------------------------
----------------------------------------------------
----------------------------------------------------

15-15-14-14-12-12-10-10-8-8-7-7-8--8\10--10-10-12-10-10-8-7-8-8\10-10-10
------------------------------------------------------------------------
------------------------------------------------------------------------
------------------------------------------------------------------------
------------------------------------------------------------------------
------------------------------------------------------------------------

12-12-10-10--15-15-14-14-
-------------------------
-------------------------
-------------------------
-------------------------
-------------------------


Guitar 1

repeat x4
----------------------------------------
--13p12----12-13-13\15-13p12----12------
--14p12----12-14-14\16-14p12----12------
--------14-------------------14---------
----------------------------------------
----------------------------------------

Guitar 2

repeat x4                        
------------------------3------   
--2p0---0-1-1\3--1p0----3------  
--1p0---0-2-2\4--2p0----0------  
------2---------------2--------  
-------------------------------
------------------------------- 

End with "G"
Comments