Ivy - Worry About You Chords & Tabs

 

Worry About You Chords & Tabs

Ivy Chords & Tabs

Version: 3 Type: Tab

Worry About You Tab

   
Ivy - Worry About You
Tabbed by Jeff Kingsbury
kingsbury.jeff[@]gmail[.]com


Capo on the first fret



Form the 5th chords and finger pick the notes
e|---------------------------------------------------------------------------|
B|---------------------------------------------------------------------------|
G|-------7--------6----------------------------------------------------------|
D|-----5-5--------7----------------------------------------------------------|
A|--7----------7-------------------------------------------------------------|
E|----------5----------------------------------------------------------------|


Or you could be lazy and play the open chords:
    E             A
e|--0-------------0----------------------------------------------------------|
B|--0-------------2----------------------------------------------------------|
G|--1-------------2----------------------------------------------------------|
D|--2-------------2----------------------------------------------------------|
A|--2-------------0----------------------------------------------------------|
E|--0-------------x----------------------------------------------------------|

[ Tab from: http://www.guitartabs.cc/tabs/i/ivy/worry_about_you_tab_ver_3.html ]
e|---------------------------------------------------------------------------|
B|-------------------12------------------------------------------------------|
G|------5------------12------------------------------------------------------|
D|----7-----------12---------------------------------------------------------|
A|--5----------10------------------------------------------------------------|
E|---------------------------------------------------------------------------|

The lazy chords again:
    Dm             G
e|--1--------------3---------------------------------------------------------|
B|--3--------------3---------------------------------------------------------|
G|--2--------------0---------------------------------------------------------|
D|--0--------------0---------------------------------------------------------|
A|--0--------------2---------------------------------------------------------|
E|--x--------------3---------------------------------------------------------|

After Chorus
e|---------------------------------------------------------------------------|
B|------3-------------0----------------------0-------------------------------|
G|----4---4---------0-------------0--------0---------------------------------|
D|-----------0-----------------4---------------------------------------------|
A|--------------0-----------7-------7----0-----------------------------------|
E|---------------------------------------------------------------------------|