Ivy - Worry About You Chords & Tabs

 

Worry About You Chords & Tabs

Ivy Chords & Tabs

Version: 2 Type: Tab

Worry About You Tab

Artist: Ivy
Song: Worry About You
Album: Long Distance
Year: 1997

Tabbed by: Downfall
Email: mostlyautumn@gmail.com

Standart tuning (EBGDAE)

Capo 1st fret

Intro and verse

F |----------------|F
C |------3------2--|C
G#|----0------0----|G#
Eb|--2-------------|Eb
Bb|---------0------|Bb
F |----------------|F

Bye bye baby
Don't be long
I'll worry about you while you're gone

Chorus
[ Tab from: http://www.guitartabs.cc/tabs/i/ivy/worry_about_you_tab_ver_2.html ]
F |-------------3--|F
C |------3----0----|C
G#|----2----0------|G#
Eb|--0-------------|Eb
Bb|----------------|Bb
F |----------------|F

I'll think of you in my dreams
You'll never know just what you mean to me...
...To me

Hmmm, ba, ba-da...
Hmmm, ba, ba, ba-da...

Bye bye baby
Don't be long
I'll worry about you while you're gone

I'll think of you night and day
I'll never know just what you meant to say...
...To say

Hmmm, ba, ba-da...
Hmmm, ba, ba, ba-da...