Ivy - Worry About You Chords & Tabs

 

Worry About You Chords & Tabs

Ivy Chords & Tabs

Version: 1 Type: Tab

Worry About You Tab

||------------------------------------|
||-0-----0----------------------------|
||------------------------------------|X 11    guitar 1
||---0-----0--------------------------|
||-----4-----3------------------------|
||------------------------------------|

after: "I'll worry about you while you're gone..."  
||----------------|
||----------------|
||----------------| guitar 2
||-5-8------------|
||-----6----------|
||----------------|


-------------------
shmulik kalomiti :)
-------------------
[ Tab from: http://www.guitartabs.cc/tabs/i/ivy/worry_about_you_tab.html ]