Ivan Montenegro - Ejercicio Chords & Tabs

 

Ejercicio Chords & Tabs

Ivan Montenegro Chords & Tabs

Version: 1 Type: Tab 0 ratings
1 star 2 stars 3 stars 4 stars 5 stars
comments

Ejercicio Tab

   
#----------------------------------PLEASE NOTE--------------------------------#
#This file is the author's own work and represents their interpretation of the#
#song. You may only use this file for private study, scholarship, or research.#
#-----------------------------------------------------------------------------#
#-- File created with Instab - http://www.pconline.com/~smcarey/instab.html --#
#-----------------------------------------------------------------------------#

Author/Artist: Ivan Montenegro
Title: Ejercicio de Precicion y Manejo del Pick
Album: Primera Parte
Transcribed by: Ivan Montenegro
Email: panas22@hotmail.com

Este ejercicio ayuda a la precicion de tus manos y a un mejor manejo del pick(U?a), lo puedes tocar en 
pocicison y es importante que cuando lo practiques uses el pick abajo arriba con un movimiento de tu mu?eca 
la misma manera (abajo hacia arriba).  Tu mano izquierda en el caso que seas derecho, debe estar en una pocision de manera que la mu?eca este alineada con el fretboard.
Espero que disfrutes este ejercicio y recuerda "El esfuerzo que le pongas a la practica va a reflejar 
puedas tocar la guitarra"
[ Tab from: http://www.guitartabs.cc/tabs/i/ivan_montenegro/ejercicio_tab.html ]
-|-----------------------------------3---5---4---2-------------------------|--|
-|---------------------------3---5-2---4---5---3-----4---2-----------------|--|
-|-------------------3---5-2---4-------------------5---3-----4---2---------|--|
-|-----------3---5-2---4-----------------------------------5---3-----4---2-|--|
-|---3---5-2---4---------------------------------------------------5---3---|--|
-|-2---4-------------------------------------------------------------------|--|
   d u d u d u d u d u d u d u d u d u d u d u d u d u d u d u d u d u d u

-|----------------------------------------------------------------------------|
-|----------------------------------------------------------------------------|
-|----------------------------------------------------------------------------|
-|----------------------------------------------------------------------------|
-|---4---2--------------------------------------------------------------------|
-|-5---3---2------------------------------------------------------------------|
   d u d u d
Comments