Itchyworms - Beer Chords & Tabs

 

Beer Chords & Tabs

Itchyworms Chords & Tabs

Version: 4 Type: Tab

Beer Tab

   
Beer
Itchyworms

Intro:
      GM7	CM7	  GM7	    CM7	    D9	     GM7   Esus  E
e|-------------------5/7-----------7-7--------------7---5-5/7-------------|
B|-------3-3/7-----5---------3-3/7-----8-8-----7-10---8-------10-9(break)-|
G|-2-2/4-------5-4-------5-4---------------9-8----------------------------|
D|------------------------------------------------------------------------|
A|------------------------------------------------------------------------|
E|------------------------------------------------------------------------|

fill 1			   fill 2
e|-----------|           e|-----------|
B|--5--7/8-8-|           B|-7---------|
G|-5---------|           G|--7-5-4----|
D|-----------|           D|-----------|
A|-----------|           A|-----------|
E|-----------|           E|-----------|

Verse 1:
          Am7         (fill 1)D7
Nais kong magpakalasing
	 G     (fill 2)E
Dahil wala ka na
       Am7           (fill 1)D7 
Nakatingin sa salamin
	  G   (fill 2)E
At nag-iisa

***
      Am7
Nakatanim pa rin ang gumamelang
CM7			  G	      E-Esus-E
Binalik mo sa'kin nang tayo'y maghiwalay
Am7
Ito'y katulad
	    Am7
Ng damdamin ko
	            Am7			D7
Kahit buhusan mo ng beer ayaw pang mamatay

Pre-chorus:
GM7		      CM7      Am
Giliw, wag mo sanang limutin
    D9   Bm		       CM7
Ang mga araw na hindi sana naglaho
     Bm	             CM7
Mga anak at bahay nating pinaplano
  Bm		    E
Lahat ng ito'y nawala
             Am7    D7
Nung iniwan mo ako kaya ngayon

Chorus:
 C	      G
Ibuhos na ang beer
	  E-Esus-Bm
Sa aking lalamunan
 C	      G
Upang malunod na ang
     E     Esus-Bm
Puso kong nahihirapan
  C	     B7
Bawat patak anong sarap
    Em	   D9		  C#m(break)
Ano ba talagang mas gusto ko
    Am(hold)
Ang beer na to 
  D(hold)
O ang pag-ibig mo

Intro

Verse 2: Am7 D7 G E
Nais kong magpakasabog
Dahil olats ako
Kahit ano hihithitin
Kahit tambutso
[ Tab from: http://www.guitartabs.cc/tabs/i/itchyworms/beer_tab_ver_4.html ]
*** Am7 CM7 G E-Esus E; Am7 Am7 Am7 D7
Kukuha 'ko ng beer at ipapakulo
Sa kaldero't lalanghapin
Ang usok nito
Lahat ay aking gagawin
Upang hindi ko na isiping
Nag-iisa na ako

Chorus
 C	      G
Ibuhos na ang beer
	  E-Esus-Bm
Sa aking lalamunan
 C	      G
Upang malunod na ang
     E     Esus-Bm
Puso kong nahihirapan
  C	     B7
Bawat patak anong sarap
    Em	   D9		  C#m(break)
Ano ba talagang mas gusto ko
    Am(hold)
Ang beer na to 
  D(hold)       G
O ang pag-ibig mo

Adlib: *** Am7 CM7 G E-Esus E; Am7 Am7 Am7 D7


e|--------------------------10/12-14-15-17-15-14-12-----------------------|
B|-------8-10(v)-10(v)-10-8------------------------15-----15--15/17-15-15-|
G|----7h9------------------9-------------------------14-16--16------------|
D|-7h9--------------------------------------------------------------------|
A|------------------------------------------------------------------------|
E|------------------------------------------------------------------------|

e|---------------------------------------------------------------------------------|
B|---------------------------------------------------------------------------------|
G|-14/16-14-14-12-12-----12-14/16-14-14-12-12-----12-14/16-14-12-14/16-12-14/16-17-|
D|------------------14-14--------------------14-14---------------------------------|
A|---------------------------------------------------------------------------------|
E|---------------------------------------------------------------------------------|

Pre-chorus:
GM7		      CM7      Am
Giliw, wag mo sanang limutin
    D9   Bm		       CM7
Ang mga araw na hindi sana naglaho
     Bm	             CM7
Mga anak at bahay nating pinaplano
  Bm		    E
Lahat ng ito'y nawala
             Am7    D7
Nung iniwan mo ako kaya ngayon

Chorus
 C	      G
Ibuhos na ang beer
	  E-Esus-Bm
Sa aking lalamunan
 C	      G
Upang malunod na ang
     E     Esus-Bm
Puso kong nahihirapan
  C	     B7
Bawat patak anong sarap
    Em	   D9		  C#m(break)
Ano ba talagang mas gusto ko
    Am
Ang beer na 'to
    Bm
Ang beer na 'to
    Am             D(hold)
Ang beer na 'to o ang
	   Intro
Pag-ibig mo

tabbed by: Adrian Deala

joke lang!
tabbed by: Antonin Deala
e-mail: antonindeala@ yahoo.com

Hubby Aerese, I love you!