It Dies Today - Severed Ties Yield Severed Heads Chords & Tabs

 

Severed Ties Yield Severed Heads Chords & Tabs

It Dies Today Chords & Tabs

Version: 1 Type: Bass Tab

Severed Ties Yield Severed Heads Bass Tab

   
Band- It Dies Today
Song- severed Ties Yield Severed Heads

h = hammer-on
/ = slide down
r = let ring

Verse
F|-------------------|-------------------|-------------------|
C|-------------------|-------------------|---2--0--3--2--2h3-|
G|---7--5--8--7--5h7-|---7--5--8--7--5h7-|-33-33-33-33-33----|
C|-00-00-00-00-00----|-88-88-88-88-88----|-------------------|
           x2                  x2                  x2

Pre_Chorus
F|---------------------------------------|
C|---------------------------------------|
G|---------------------------------------|
C|-0-0-5-0-3-0-0-5-0-3-0-0-5-0-3-0-2(x8)-|

Chorus
F|-------------------------------------------------|
C|-------------------------------------------------|
G|------0(x8)-1(x8)-0(x8)--------------------------| x2
C|0(x8)-------------------3(x16)-0(x8)-2(x4)-3(x4)-|

Verse
F|-------------------|-------------------|-------------------|
C|-------------------|-------------------|---2--0--3--2--2h3-|
G|---7--5--8--7--5h7-|---7--5--8--7--5h7-|-33-33-33-33-33----|
C|-00-00-00-00-00----|-88-88-88-88-88----|-------------------|
           x2                  x2                  x2
[ Tab from: http://www.guitartabs.cc/tabs/i/it_dies_today/severed_ties_yield_severed_heads_btab.html ]
Bridge
F|-----------------------------------------------------------------|
C|-----------------7--7--7--7--7---------------------7--7--7--7--7-|
G|---7h8----------5-05-05-05-05-----10h12----------5--05-05-05-05--|
C|-8-----5--5-5-5-----------------8-------5--5-5-5-----------------|

Chorus
F|-------------------------------------------------|
C|-------------------------------------------------|
G|------0(x8)-1(x8)-0(x8)--------------------------| x2
C|0(x8)-------------------3(x16)-0(x8)-2(x4)-3(x4)-|

Breakdown
F|---------------------|------------|---------|
C|---------------------|------------|---------|
G|---------------------|------------|---------|
C|-00-00-00-00-00--12/-|-00-00-0000-|-00-0000-|
          x1                  x1         x6

Breakdown cont...
F|------------------------------------------------|
C|------------------------------------------------|
G|------------------------------------------------|
C|-0-0-000-0-0-0--0-0-0-0--0-000-0-0-0--0-0-0-0-0-|

Breakdown cont...
F|--------------------------------------|
C|--------------------------------------|
G|--------------------------------------|
C|-8-888-8-8-8--8-8-8-8-8--5-555-5-5-5r-|

Chorus
F|-------------------------------------------------|
C|-------------------------------------------------|
G|------0(x8)-1(x8)-0(x8)--------------------------| x3
C|0(x8)-------------------3(x16)-0(x8)-2(x4)-3(x4)-|