It Dies Today - Naenia Chords & Tabs

 

Naenia Chords & Tabs

It Dies Today Chords & Tabs

Version: 1 Type: Tab

Naenia Tab

   
----------------------------------------------------------------------------
			     NAENIA - IT DIES TODAY
----------------------------------------------------------------------------
Tabbed by:KnivesIsEvil666	
Email: VashTheStampede60@softhome.net

Tuning: "Drop" C (C G C F A D)

This tab is for the rhythm part only. Ill add in the lead later.


Intro

e|-------------------------------------------------------------------------|
B|-------------------------------------------------------------------------|
G|-------------------------------------------------------------------------|
D|-5555--5555--XXXX--1111--XXXX--3333--XXXX--------------------------------|
A|-5555--5555--XXXX--1111--XXXX--3333--XXXX--------------------------------|
E|-5555--5555--XXXX--1111--XXXX--3333--XXXX--------------------------------|

Riff 1

e|-------------------------------------------------------------------------|
B|-------------------------------------------------------------------------|
G|------5h7p5-3h5p3------5h7-7h8p7------5----------------------------------|
D|-5555-------------5555-----------1111--7-5h7-3333-5~-3~------------------|
A|-5555-------------5555-----------1111--------3333------------------------|
E|-5555-------------5555-----------1111--------3333------------------------|

Riff 2

e|-------------------------------------------------------------------------|
B|-------------------------------------------------------------------------|
G|-------------------------------------------------------------------------|
D|-555555555555555-55577733-1111111111111111-333333333333333---------------|
A|-555555555555555-55577733-1111111111111111-333333333333333---------------|
E|-555555555555555-55577733-1111111111111111-333333333333333---------------|

P.M.--------------------------------------------------------|


Chorus Riff 1
[ Tab from: http://www.guitartabs.cc/tabs/i/it_dies_today/naenia_tab.html ]
e|-------------------------------------------------------------------------|
B|-------------------------------------------------------------------------|
G|-------------------------------------------------------------------------|
D|-5555555-5555555-1111111-3333333-----------------------------------------|
A|-5555555-5555555-1111111-3333333-----------------------------------------|
E|-5555555-5555555-1111111-3333333-----------------------------------------|

Chorus Riff 2

e|-------------------------------------------------------------------------|
B|-------------------------------------------------------------------------|
G|-------------------------------------------------------------------------|
D|-1111111-3333333-5555555-5555555-1111111-3333333-------------------------|
A|-1111111-3333333-5555555-5555555-1111111-3333333-------------------------|
E|-1111111-3333333-5555555-5555555-1111111-3333333-------------------------|


Riff 3

e|-------------------------------------------------------------------------|
B|-------------------------------------------------------------------------|
G|-------------------------------------------------------------------------|
D|-5555--XXXX-5555--XXXX--15\----------------------------------------------|
A|-5555--XXXX-5555--XXXX--15\----------------------------------------------|
E|-5555--XXXX-5555--XXXX--15\----------------------------------------------|

Riff 4

e|-------------------------------------------------------------------------|
B|-------------------------------------------------------------------------|
G|--------5--------------5-------------------------------------------------|
D|-111111--7-5h7--111111--7-5h7-5555555-5555555----------------------------|
A|-111111---------111111--------5555555-5555555----------------------------|
E|-111111---------111111--------5555555-5555555----------------------------|

P.M.----|         -----|


| /  slide up
| \  slide down
| h  hammer-on
| p  pull-off
| ~  vibrato
| +  harmonic
| x  Mute note
===============================================================================