It Dies Today - My Promise Chords & Tabs

 

My Promise Chords & Tabs

It Dies Today Chords & Tabs

Version: 2 Type: Tab 0 ratings
1 star 2 stars 3 stars 4 stars 5 stars
comments

My Promise Tab

   
Artist: It Dies Today
Song: My Promise
Album: The Caitiff Choir
Tabber: theguitarmanX

Drop C Tuning

Intro
Both Guitars (those are 1's)
D|----------------------------------------------------------|
A|----------------------------------------------------------|
F|----------------------------------------------------------|
C|----------------------------1*----------------------------|
G|-111111-111111-111-11-11-11----000000-000000-000-00-00-00-|
C|-111111-111111-111-11-11-11----000000-000000-000-00-00-00-|
PM ...... ...... ... .. .. ..    ...... ...... ... .. .. ..

Cont'd (that is a 1 not 11)
D|--------------------------------|
A|--------------------------------|
F|--------------------------------|
C|----------------------------0~~-|
G|-000000-000000-000-00-00-11-0~~-|
C|-000000-000000-000-00-00-11-0~~-|
PM ...... ...... ... .. .. ..

Verse
Both Guitars
D|-----------------------------------------------------------------------|
A|-----------------------------------------------------------------------|
F|-----------------------------------------------------------------------|
C|--------------1----1---1/4------------------------------4---3---7/10-4-|
G|--------------1-00-1-0-1/4-00-4---0-6---0-5-----8---000-4-0-3-0-7/10-4-|
C|-pick-slide//-1-00-1-0-1/4-00---5-0---3-0---8-5---4-000-4-0-3-0-7/10-4-|
PM                ..         ..     .     .           ...   .   .

Chorus
Both Guitars on the first 2 times
D|------------------------------------------------------------|
A|------------------------------------------------------------|
F|-------------7---8-8-----7---8---1111-----7---8---8---------|
C|-3-1-6-2-----x---x-x-----x---x---x-x------x---x---x-3-1-6-2-|
G|-3-1-6-2-----5---6-6-----5---6---9-9------5---6---6-3-1-6-2-|
C|-3-1-6-2-000---0-----000---0---0------000---0---0---3-1-6-2-|
PM         ...   .     ...   .   .      ...   .   .

Guitar 2 plays this on the third and fourth time
D|---------------------------------------------------|
A|---------------------------------------------------|
F|-----4---5-5-----4---5---8-8-----2---5---5---------|
C|-----x---x-x-----x---x---x-x-----x---x---x-3-1-6-2-|
G|-----2---3-3-----2---3---6-6-----2---3---3-3-1-6-2-|
C|-000---0-----000---0---0-----000---0---0---3-1-6-2-|
PM ...   .     ...   .   .     ...   .   .

Bridge
Guitar 1
D|--------------------------------------------------------------------|
A|--------------------------------------------------------------------|
F|-------/10~------10101010101010101010101010101010101010101010101010-|
C|-0~----/x~~------x-x-x-x-x-x-x-x-x-x-x-x-x-x-x-x-x-x-x-x-x-x-x-x-x--|
G|-0~----/8~~------8-8-8-8-8-8-8-8-8-8-8-8-8-8-8-8-8-8-8-8-8-8-8-8-8--|
C|-0~-----------------------------------------------------------------|

Guitar 2
D|-------------------------------------------------------------------|
A|-------------------------------------------------------------------|
F|----------------/777777777-666666666666666666666666666666666666666-|
C|-0~-------------/xxxxxxxxx-xxxxxxxxxxxxxxxxxxxxxxxxxxxxxxxxxxxxxxx-|
G|-0~-------------/555555555-444444444444444444444444444444444444444-|
C|-0~----------------------------------------------------------------|

Bridge 2
Guitar 1
D|-----------------------------------------------------------------------|
A|-----------------------------------------------------------------------|
F|---------------------------------------------------------------7-7-8-8-|
C|-----------------------------44-33-----------------------------x-x-x-x-|
G|-0---0---0---0-------0---0---44-44-0---0---0---0-------0---0---5-5-6-6-|
C|-0-0-0-0-0-0-0-0-000-0-0-0-0-44-33-0-0-0-0-0-0-0-0-000-0-0-0-0---------|
PM   .   .   .   . ...   .   .         .   .   .   . ...   .   .
[ Tab from: http://www.guitartabs.cc/tabs/i/it_dies_today/my_promise_tab_ver_2.html ]
D|---------------------------------------------------------------------|
A|---------------------------------------------------------------------|
F|---------------------------------------------------------------------|
C|-----------------------------44-33-----------------------------4-1-0-|
G|-0---0---0---0-------0---0---44-44-0---0---0---0-------0---0---4-1-0-|
C|-0-0-0-0-0-0-0-0-000-0-0-0-0-44-33-0-0-0-0-0-0-0-0-000-0-0-0-0-4-1-0-|
PM   .   .   .   . ...   .   .         .   .   .   . ...   .   .

Guitar 2
D|-----------------------------------------------------------------------|
A|-----------------------------------------------------------------------|
F|---------------------------------------------------------------4-4-5-5-|
C|-----------------------------44-33-----------------------------x-x-x-x-|
G|-0---0---0---0-------0---0---44-44-0---0---0---0-------0---0---2-2-3-3-|
C|-0-0-0-0-0-0-0-0-000-0-0-0-0-44-33-0-0-0-0-0-0-0-0-000-0-0-0-0---------|
PM   .   .   .   . ...   .   .         .   .   .   . ...   .   .

D|---------------------------------------------------------------------|
A|---------------------------------------------------------------------|
F|---------------------------------------------------------------------|
C|-----------------------------44-33-----------------------------4-1-0-|
G|-0---0---0---0-------0---0---44-44-0---0---0---0-------0---0---4-1-0-|
C|-0-0-0-0-0-0-0-0-000-0-0-0-0-44-33-0-0-0-0-0-0-0-0-000-0-0-0-0-4-1-0-|
PM   .   .   .   . ...   .   .         .   .   .   . ...   .   .

Bridge 3
D|------------------------|
A|------------------------|
F|------------------------|
C|------------------4-1-0-|
G|-1-1--1-1-1-1-1---4-1-0-|
C|-1-1--1-1-1-1-1---4-1-0-|
PM . .  . . . . .

Bridge 4 (NOTE: Guitar 1 and 2 switch of doing the zeros so figure that out)
D|--------------------------------------------------------|
A|--------------------------------------------------------|
F|--------------------------------------------------------|
C|--------------------------------------------------------|
G|-3-1-0-4-3-1--------------3-1-0-3-1-0-4-3-1-------------|
C|-3-1-0-4-3-1-0-0-0-0-0-0--3-1-0-3-1-0-4-3-1-0-0-0-0-0-0-|
PM . . . . . .              . . . . . . . . .
D|---------------------------------------------------------------|
A|---------------------------------------------------------------|
F|---------------------------------------------------------------|
C|---------------------------------------------------------------|
G|-3-1-0--------------3-1-0-4-3-1--------------3-1-0-------------|
C|-3-1-0-0-0-0-0-0-0--3-1-0-4-3-1-0-0-0-0-0-0--3-1-0-0-0-0-0-0-0-|
PM . . .              . . . . . .              . . .

D|--------------------------------------------------------|
A|--------------------------------------------------------|
F|--------------------------------------------------------|
C|--------------------------------------------------------|
G|-3-1-0-3-1-0-4-3-1--------------3-1-0-4-3-1-------------|
C|-3-1-0-3-1-0-4-3-1-0-0-0-0-0-0--3-1-0-4-3-1-0-0-0-0-0-0-|
PM . . . . . . . . .              . . . . . .

D|--------------------------------------------|
A|--------------------------------------------|
F|--------------------------------------------|
C|--------------------(palm-slower-at-the-end)|
G|-3-1-0--------------3-1-0-3-1-0-3-1-0-4-3-1-|
C|-3-1-0-0-0-0-0-0-0--3-1-0-3-1-0-3-1-0-4-3-1-|
PM . . .              . . . . . . . . . . . .

Breakdown (best breakdown of all time!)
D|---------------------------------------------------------------------|
A|---------------------------------------------------------------------|
F|---------------------------------------------------------------------|
C|---------------------------------------------------------------------|
G|-00-000--000-0-0-0-0-000-0-0-0-000----000--00-000-0-000-0-0-0-000-00-|
C|-00-000--000-0-0-0-0-000-0-0-0-000----000--00-000-0-000-0-0-0-000-00-|
PM .. ...  ... . . . . ... . . . ...    ...  .. ... . ... . . . ... ..

Later. It Dies Today f***ing owns! \m/
Comments