It Dies Today - Freak Gasoline Fight Accident Chords & Tabs

 

Freak Gasoline Fight Accident Chords & Tabs

It Dies Today Chords & Tabs

Version: 2 Type: Tab 0 ratings
1 star 2 stars 3 stars 4 stars 5 stars
comments

Freak Gasoline Fight Accident Tab

   
FREAK GASOLINE FIGHT ACCIDENT
by It Dies Today
(From the 2004 album THE CAITIFF CHOIR)
(c)2004. Trustkill Records.

Guitar I (C G C F A D)-Chris Cappelli
Guitar II (C G C F A D)-Mike Hatalak

Intro
|Guitar I
|-------------------------------------|
|-------------------------------------|
|-------------------------------------|
|-7777-10-7-9-7777-10-77-9-7-9-7-9h10-|
|-------------------------------------|
|-------------------------------------|
|
|Guitar II
|-------------------------------------------------------------|
|-------------------------------------------------------------|
|-------------------------------------------------------------|
|-7-------------7~------/////////3~-----------5~--------------|
|-7-------------7~------/////////3~-----------5~--------------|
|-7-------------7~------/////////3~-----------5~--------------|

Pre-Verse
|Guitar I
|-------------------------------------|
|-------------------------------------|
|-------------------------------------|
|-7777-10-7-9-7777-10-77-9-7-9-7-9h10-|
|-------------------------------------|
|-------------------------------------|
|
|Guitar II
|--------------------------------------------------------------------------|
|--------------------------------------------------------------------------|
|--------------------------------------------------------------------------|
|--------------------------------------------------------------------------|
|--------------------------------------------------------------------------|
|-777777777777777777777777777777777773333333333333333333555555555555555555-|
| ........................................................................

Verse
|Guitar I 
|-------------------------------------------------------------|
|-------------------------------------------------------------|
|-------------------------------------------------------------|
|-------------------------------------------------------------|
|----8----8----8----8----8----8-----8----8----8----8---10-8-7-|
|-77---77---77---77---77---77---777---77---77---77---7--------|
| ..   ..   ..   ..   ..   ..   ...   ..   ..   ..   .
|
|-----------------------------------------------------|
|-----------------------------------------------------|
|-----------------------------------------------------|
|-------------------------------------------10--------|
|----5----5----5----5----5----7----7----7------10h12--|
|-33---33---33---33---33---55---55---55---5-----------|
| ..   ..   ..   ..   ..   ..   ..   ..   .
|
|Guitar II 
|-------------------------------------------------------------|
|-------------------------------------------------------------|
|-------------------------------------------------------------|
|-------------------------------------------------------------|
|----8----8----8----8----8----8-----8----8----8----8---10-8-7-|
|-77---77---77---77---77---77---777---77---77---77---7--------|
| ..   ..   ..   ..   ..   ..   ...   ..   ..   ..   .
|--------------------------------------------------|
|--------------------------------------------------|
|--------------------------------------------------|
|-------------------------------------------7------|
|----5----5----5----5----5----7----7----7-----5h7--|
|-33---33---33---33---33---55---55---55---5--------|
| ..   ..   ..   ..   ..   ..   ..   ..   .

Fill
|Guitar I
|------------------|
|------------------|
|-----14-----17-16-|
|------x------x--x-|
|-----12-----15-14-|
|-00-------00------|
| ..       ..
|
|Guitar II
|--------------|
|--------------|
|--------------|
|----3-------5-|
|----3-------5-|
|-00-3----00-5-|
| ..      ..
[ Tab from: http://www.guitartabs.cc/tabs/i/it_dies_today/freak_gasoline_fight_accident_tab_ver_2.html ]
Chorus
|Guitar I
|-------------------------------------------------|
|-------------------------------------------------|
|-14-14-14--12--101010--12--9-9-9-10--7--9-9/10\9-|
|--x--x--x---x---x-x-x---x--x-x-x--x--x--x-x/-x\x-|
|-12-12-12--10---8-8-8--10--7-7-7--8--5--7-7/-8\7-|
|-------------------------------------------------|
|
|Guitar II
|------------------------------------------|
|------------------------------------------|
|------------------------------------------|
|-7-7-7--5--3-3-3--3--2-2-2--2--0--0-0-0-0-|
|-7-7-7--5--3-3-3--3--2-2-2--2--0--0-0-0-0-|
|-7-7-7--5--3-3-3--3--2-2-2--2--0--0-0-0-0-|

Bridge I
|Guitar I & II
|---------------------------------------|
|---------------------------------------|
|---------------------------------------|
|---------------------------------------|
|-17/////////-8-7-6-7-6-5-6-5-4-5-4-3-2-|
|-17/////////-8-7-6-7-6-5-6-5-4-5-4-3-2-|
|             . . . . . . . . . . . . .

Breakdown I
|Guitar I & II
|----------------------------------------|
|----------------------------------------|
|----------------------------------------|
|----------------------------------------|
|-000000---00---00---00---0000---00---00-|
|-000000---00---00---00---0000---00---00-|
| ......   ..   ..   ..   ....   ..   ..

Breakdown II
|Guitar I & II
|-------------------------|   
|-------------------------|   
|-------------------------|   
|-------------------------|   
|-17////-0-0-0---0-0---00-|
|-17////-0-0-0---0-0---00-|
|        . . .   . .   ..

Bridge II
|Guitar I
|------------------------------------------------|
|------------------------------------------------|
|------------------------------------------------|
|------------------------------------------------|
|------55-77------77-88------88-77-1010-88-77-88-|
|-3333-------5555-------7777---------------------|
|
|Guitar II
|--------------------------------------------|
|--------------------------------------------|
|--------------------------------------------|
|--------------------------------------------|
|----------------------------2222-3333-55-77-|
|-33333333-55555555-77777777-----------------|

Bridge III
|Guitar I
|------------------|
|------------------|
|------------------|
|-3-------5--------|
|-3--5-7--5--7-8-7-|
|-3-------5--------|
|
|Guitar II
|------------------|
|------------------|
|------------------|
|-3--3-5--5--5-7-5-|
|-3-------5--------|
|-3-------5--------|

Chorus
|Guitar I
|-------------------------------------------------|
|-------------------------------------------------|
|-14-14-14--12--101010--12--9-9-9-10--7--9-9/10\9-|
|--x--x--x---x---x-x-x---x--x-x-x--x--x--x-x/-x\x-|
|-12-12-12--10---8-8-8--10--7-7-7--8--5--7-7/-8\7-|
|-------------------------------------------------|
|
|Guitar II
|------------------------------------------|
|------------------------------------------|
|------------------------------------------|
|-7-7-7--5--3-3-3--3--2-2-2--2--0--0-0-0-0-|
|-7-7-7--5--3-3-3--3--2-2-2--2--0--0-0-0-0-|
|-7-7-7--5--3-3-3--3--2-2-2--2--0--0-0-0-0-|


Fill 
|Guitar I & II
|---|
|---|
|---|
|-0-|
|-0-|
|-0-|

Breakdown III
|Guitar I & II
|------------------------|
|------------------------|
|------------------------|
|-17/////----------------|
|-17/////--000-0-00-0-0--|
|-17/////--000-0-00-0-0--|
|          ... . .. . .
|
|------------------------------------------------------------------------|
|------------------------------------------------------------------------|
|--------3-3-3-3-3-3-3-3-3-3-3-3-3-3-3-3-3-3-3-3-3-3-3-3-3-3-3-3-3-3-3-3-|
|--------2-2-2-2-2-2-2-2-2-2-2-2-2-2-2-2-2-2-2-2-2-2-2-2-2-2-2-2-2-2-2-2-|
|-0-0----1-1-1-1-1-1-1-1-1-1-1-1-1-1-1-1-1-1-1-1-1-1-1-1-1-1-1-1-1-1-1-1-|
|-0-0----0-0-0-0-0-0-0-0-0-0-0-0-0-0-0-0-0-0-0-0-0-0-0-0-0-0-0-0-0-0-0-0-|
| . .    . . . . . . . . . . . . . . . . . . . . . . . . . . . . . . . . 
|
|--------------------------|
|--------------------------|
|--------------------------|
|--------------------------|
|-0-0-0-0-0-0--0-0-0-0-0-0-|
|-0-0-0-0-0-0--0-0-0-0-0-0-|
| . . . . . .  . . . . . .

End.

This song kicks ass and its 100% correct. Please rate.
Comments