It Dies Today - Freak Gasoline Fight Accident Chords & Tabs

 

Freak Gasoline Fight Accident Chords & Tabs

It Dies Today Chords & Tabs

Version: 1 Type: Bass Tab

Freak Gasoline Fight Accident Bass Tab

Band- It Dies Today
Song- Freak Gasoline Fight Accident

Intro
F|-------------|
C|-------------|
G|-------------|
C|-7--7--3*-5*-|

F|-------------------------------------|
C|-------------------------------------|
G|-------------------------------------|
C|-7777777777777777-33333333-55555555--| x2
[ Tab from: http://www.guitartabs.cc/tabs/i/it_dies_today/freak_gasoline_fight_accident_btab.html ]
Verse
F|-----------------------------------------------------|
C|-----------------------------------------------------|
G|----8----8----8----8----8----8----8----8----8-10-8-7-|
C|-88---88---88---88---88----88--88---88---88----------|

F|---------------------------------------------------|
C|---------------------------------------------------|
G|----5----5----5----5----5----7----7-----7-7--10/12-|
C|-00---00---00---00---00---00---00---00-------------|

F|-------------------------------|
C|-------------------------------|
G|-------------------------------|
C|17*--8-7-6-7-6-5-6-5-4-5-4-3-2-|

Bridge
F|---------------------------------|
C|---------------------------------|
G-----4-5-----6-7-----8-7-10-8-7-8-|
C-3-3-----5-5-----7-7--------------|