It Dies Today - Depravity Waltz Chords & Tabs

 

Depravity Waltz Chords & Tabs

It Dies Today Chords & Tabs

Version: 1 Type: Tab 0 ratings
1 star 2 stars 3 stars 4 stars 5 stars
comments

Depravity Waltz Tab

   
THE DEPRAVITY WALTZ
by It Dies Today
(from the 2004 album THE CAITIFF CHOIR)

Guitar I - ( C G C F A D)- 'Mike Hatalak'
Guitar II - ( C G C F A D)- 'Chris Capelli'

Intro
Gtrs I,II
||------------------------|----------------------------||
||o-----------------------|---------------------------o||
||------------------------|----------------------------||
||------------------------|----------------------------||
||o-4---------------------|-4----------------------4*-o||
||----0-000-0-0-0-0-0-0-0-|---0-000-0-0-0-0-0-0-0------||
PM    - ---   -   -   -       - ---   -   -   -

Verse
Gtrs I, II                                                        
||--------------------------------|--------------------------------------|
||o-------------------------------|---------------------------------------|
||--------------------------------|---------------------------------------|
||--0-----------------------------|-0-------------------------------------|
||o-4-----------------------------|-4----------------------------------4*-|
||---00-00-00-00-00--00-00-00000--|---00-00-00-00-00--00-00--00000000-----|
PM   -- -- -- -- --  -- -- -----      -- -- -- -- --  -- -- --------

|-------------------------------|--------------------------------||
|-------------------------------|-------------------------------o||
|-------------------------------|--------------------------------||
|-0-----------------------------|-0------------------------------||
|-4-----------------------------|-4-----------------------------o||
|---00-00-00-00-00--00-00-00000-|---00-00-00-00-00--00-00-00000--||
PM  -- -- -- -- --  -- -- -----     -- -- -- -- --  -- -- -----

1.____________ 2.___________
|-------------|-------------|
|-------------|-------------|
|-------------|-------------|
|-------------|-------------|
|-1-0-4-3-1-0-|----------4*-|
|-1-0-4-3-1-0-|-00000000----|
PM- - - - - -   --------

Pre-Chorus
Gtrs I, II
||--------------------------------------------|
||o-------------------------------------------|
||--------------------------------------------|
||--------------------------------------------|
||o-------------------------------------------|
||--4p0-00-000-1p0-00-000-6p0-00-000-4p3-0h3--|
PM      -- ---     -- ---     -- ---

|-------------------------------------------||
|------------------------------------------o||
|-------------------------------------------||
|-------------------------------------------||
|------------------------------------------o||
|-4p0-00-000-1p0-00-000-6p0-00-000-4p3-0h3--||
PM    -- ---     -- ---     -- ---

Chorus
Gtrs I, II
|-------------------------------|-------------------------------|
|-------------------------------|-------------------------------|
|-------------------------------|-------------------------------|
|-------------------------------|-------------------------------|
|-------------------------------|-------------------------------|
|-4p0-0-0-1p0-0-6p0-0-0-4p3-0h3-|-4p0-0-0-1p0-0-6p0-0-0-4p3-0h3-|

|-------------------------------|-------------------------------------|
|-------------------------------|-------------------------------------|
|-------------------------------|-------------------------------------|
|-------------------------------|-------------------------------------|
|-------------------------------|-------------------------------------|
|-4p0-0-0-1p0-0-6p0-0-0-4p3-0h3-|-4p0-0-0-0-0-1p0-0-0-0-0-6p0-0-0-0-0-|
PM                                --- - - - - --- - - - - --- - - - -  

|--------|
|--------|
|--------|
|--------|
|-----00-|
|-4p3-00-|
PM---

Verse II
Gtrs I,II
||------------------------|----------------------------||
||o-----------------------|---------------------------o||
||------------------------|----------------------------||
||------------------------|----------------------------||
||o-4---------------------|-4----------------------4*-o||
||----0-000-0-0-0-0-0-0-0-|---0-000-0-0-0-0-0-0-0------||
PM    - ---   -   -   -       - ---   -   -   -
[ Tab from: http://www.guitartabs.cc/tabs/i/it_dies_today/depravity_waltz_tab.html ]
Bridge
Gtr I
|---------------------------------------------------------------------|
|---------------------------------------------------------------------|
|---------------------------------------------------------------------|
|-8b---------------8b---------------8b---------------8b---------------|
|---------------------------------------------------------------------|
|----00--00-000000----00--00-000000----00--00-000000----00--00-000000-|
|PM  --  -- ------    --  -- ------    --  -- ------    --  -- ------
|
|Gtr II 
|---------------------------------------------------------------------|
|---------------------------------------------------------------------|
|---------------------------------------------------------------------|
|-8b---------------8b---------------8b---------------8b---------------|
|---------------------------------------------------------------------|
|----00--00-000000----00--00-000000----00--00-000000----00--00-000000-|
 PM  --  -- ------    --  -- ------    --  -- ------    --  -- ------

Gtr I
|---------------------------------------------------------------------|
|---------------------------------------------------------------------|
|---------------------------------------------------------------------|
|-8b---------------8b---------------8b---------------8b---------------|
|---------------------------------------------------------------------|
|----00--00-000000----00--00-000000----00--00-000000----00--00-000000-|
|PM  --  -- ------    --  -- ------    --  -- ------    --  -- ------
|
|Gtr II 
|---------------------------------------------------------------------|
|---------------------------------------------------------------------|
|-6b---------------6b---------------6b---------------6b---------------|
|---------------------------------------------------------------------|
|---------------------------------------------------------------------|
|----00--00-000000----00--00-000000----00--00-000000----00--00-000000-|
 PM  --  -- ------    --  -- ------    --  -- ------    --  -- ------

Pre-Chorus
Gtrs I, II
||--------------------------------------------|
||o-------------------------------------------|
||--------------------------------------------|
||--------------------------------------------|
||o-------------------------------------------|
||--4p0-00-000-1p0-00-000-6p0-00-000-4p3-0h3--|
PM      -- ---     -- ---     -- ---

|-------------------------------------------||
|------------------------------------------o||
|-------------------------------------------||
|-------------------------------------------||
|------------------------------------------o||
|-4p0-00-000-1p0-00-000-6p0-00-000-4p3-0h3--||
PM    -- ---     -- ---     -- ---

Chorus
Gtrs I, II
|-------------------------------|-------------------------------|
|-------------------------------|-------------------------------|
|-------------------------------|-------------------------------|
|-------------------------------|-------------------------------|
|-------------------------------|-------------------------------|
|-4p0-0-0-1p0-0-6p0-0-0-4p3-0h3-|-4p0-0-0-1p0-0-6p0-0-0-4p3-0h3-|

|-------------------------------|-------------------------------------|
|-------------------------------|-------------------------------------|
|-------------------------------|-------------------------------------|
|-------------------------------|-------------------------------------|
|-------------------------------|-------------------------------------|
|-4p0-0-0-1p0-0-6p0-0-0-4p3-0h3-|-4p0-0-0-0-0-1p0-0-0-0-0-6p0-0-0-0-0-|
PM                                --- - - - - --- - - - - --- - - - -  

|---------|
|---------|
|---------|
|---------|
|-4-3-0-3-|
|-4-3-0-3-|
PM- - - - 

Breakdown I
Gtr I 
||-----------------------------------------------------|
||o----------------------------------------------------|
||-----------------------------------------------------|
||-----------------------------------------------------|
||o-0-0-0--000-0-0-0--0-0-0--0-0-0--000-0-0-0--4-3-0-3-|
||--0-0-0--000-0-0-0--0-0-0--0-0-0--000-0-0-0--4-3-0-3-|
|PM - - -  --- - - -  - - -  - - -  --- - - -  - - - -
|
|------------------------------------------------------||
|-----------------------------------------------------o||
|------------------------------------------------------||
|------------------------------------------------------||
|--0-0-0--000-0-0-0--0-0-0--0-0-0--000-0-0-0--4-3-0-3-o||
|--0-0-0--000-0-0-0--0-0-0--0-0-0--000-0-0-0--4-3-0-3--||
|PM- - -  --- - - -  - - -  - - -  --- - - -  - - - -
|
|Gtr II
|-----------------------------------------------------|
|-----------------------------------------------------|
|-----------------------------------------------------|
|-0---------------------------------------------------|
|-0-------------------------------------------4-3-0-3-|
|-0-------------------------------------------4-3-0-3-|
|PM                                           - - - -
|                                          
|-----------------------------------------------------|
|-----------------------------------------------------|
|-----------------------------------------------------|
|-0---------------------------------------------------|
|-0-------------------------------------------4-3-0-3-|
|-0-------------------------------------------4-3-0-3-|
|PM                                           - - - -

Breakdown II
Gtrs I, II
|------------------------------------------------------|
|------------------------------------------------------|
|------------------------------------------------------|
|------------------------------------------------------|
|-0-0-0--000--0-0-0--00000--0-0-0--000--0-0-0--4-3-0-3-|
|-0-0-0--000--0-0-0--00000--0-0-0--000--0-0-0--4-3-0-3-|
PM- - -  ---  - - -  -----  - - -  ---  - - -  - - - -

This is 100% correct. Please rate.
It Dies Today owns everyone. \m/
Comments