It Dies Today - A Threnody For Modern Romance Chords & Tabs

 

A Threnody For Modern Romance Chords & Tabs

It Dies Today Chords & Tabs

Version: 4 Type: Tab 0 ratings
1 star 2 stars 3 stars 4 stars 5 stars
comments

A Threnody For Modern Romance Tab

   
                        A THRENODY FOR MODERN ROMANCE
                        As Recorded by It Dies Today
                   (from the 2004 album THE CAITIFF CHOIR)
                         (c)2004 Trustkill Records.

Gtr I - (C G C F A D) - 'Chris Capelli'
Gtr II - (C G C F A D) - 'Mike Hatalak'

Intro
Gtr I
||--------------------------------------------------------|
||o-------------------------------------------------------|
||--------------------------------------------------------|
||--------------------3-2-0-----------------------3-2-0-5-|
||o-----------------3-------3-0-----------------3---------|
||--000-000-000-000-----------0-000-000-000-000-----------|
|PM --- --- --- ---             --- --- --- --- 
|
|---------------------------------------------||
|--------------------------------------------o||
|------------------------------------3-3-5-5--||
|-------------------3-2-0----5-5-3-3-3-3-5-5--||
|-----------------3-------3--5-5-3-3-1-1-3-3-o||
|-000-000-000-000------------5-5-3-3----------||
|PM-- --- --- ---
|
|Gtr II
||---------------------------------------------------------|
||o--------------------------------------------------------|
||--------------------2-0--------------------------2-0---3-|
||------------------2-----3-2--------------------2-----3---|
||o---------------------------0----------------------------|
||--000-000-000-000-----------0--000-000-000-000-----------|
|PM-- --- --- ---              --- --- --- --- 
|
|---------------------------------------------||
|--------------------------------------------o||
|-------------------2-0--------------3-3-5-5--||
|-----------------2-----3-2--5-5-3-3-3-3-5-5--||
|----------------------------5-5-3-3-1-1-3-3-o||
|-000-000-000-000------------5-5-3-3----------||
|PM-- --- --- ---

Verse
Gtr I
||---------------------------------------------------------------|
||o--------------------------------------------------------------|
||------------------------------------5-5------------------------|
||----2-----5---3---2-3p2-5-5-5--3-3--5-5----2-----5---3---2-3p2-|
||o-0---3p0---------------5-5-5--3-3--3-3--0---3p0---------------|
||--0---------0---0-------5-5-5--3-3-------0---------0---0-------|
|PM           -   -                                  -   -  
| 
|------------------------------------------||
|-----------------------------------------o||
|1010101010101010-14-14-14-14-12-12-12-12--||
|-x-x-x-x-x-x-x-x--x--x--x--x--x--x--x--x--||
|-8-8-8-8-8-8-8-8-12-12-12-12-10-10-10-10-o||
|------------------------------------------||
|
|Gtr II
|---------------------------------------------------------------|
|---------------------------------------------------------------|
|------------------------------------5-5------------------------|
|----2-----5---3---2-3p2-5-5-5--3-3--5-5----2-----5---3---2-3p2-|
|--0---3p0---------------5-5-5--3-3--3-3--0---3p0---------------|
|--0---------0---0-------5-5-5--3-3-------0---------0---0-------|
|PM          -   -                                  -   -  
| 
|---------------------------------|
|---------------------------------|
|1010101010101010-7-7-7-7-7-7-7-7-|
|-x-x-x-x-x-x-x-x-x-x-x-x-x-x-x-x-|
|-8-8-8-8-8-8-8-8-5-5-5-5-5-5-5-5-|
|---------------------------------|
|
|---------------------------------------------------------------|
|---------------------------------------------------------------|
|------------------------------------5-5------------------------|
|----2-----2-------------5-5-5--3-3--5-5----2-----2-------------|
|--0---3p0-----5---3-5p3-5-5-5--3-3--3-3--0---3p0-----5---3-5p3-|
|--0---------0---0-------5-5-5--3-3-------0---------0---0-------|
|PM          -   -                                  -   -  
| 
|---------------------------------|
|---------------------------------|
|1010101010101010-7-7-7-7-7-7-7-7-|
|-x-x-x-x-x-x-x-x-x-x-x-x-x-x-x-x-|
|-8-8-8-8-8-8-8-8-5-5-5-5-5-5-5-5-|
|---------------------------------|

Chorus
Gtr I
|--------------------------------------------------------------------------|
|--------------------------------------------------------------------------|
|----------------------------------------------------------------------5-5-|
|----7h8p7-----3-3-5-5-5-5-7-7-8-8-1010----7h8p7---3-3-5-5-5-5-5-5-1-1-5-5-|
|-00-------8p7-3-3-3-3-5-5-5-5-8-8-8-8--00-------8-3-3-3-3-3-3-3-3-1-1-3-3-|
|-00-----------3-3-3-3-5-5-5-5-8-8-8-8--00---------3-3-3-3-2-2-2-2-1-1-----|
|
|-------------------------------------------------------|
|-------------------------------------------------------|
|-------------------------------------------------------|
|----7h8p7-----3-3-5-5-5-5-7-7-8-8-1010-3-3-3-3-3-3-3-3-|
|-00-------8p7-3-3-3-3-5-5-5-5-8-8-8-8--1-1-1-1-1-1-1-1-|
|-00-----------3-3-3-3-5-5-5-5-8-8-8-8--1-1-1-1-1-1-1-1-|
|
|Gtr II
|--------------------------------------------------------------------------|
|--------------------------------------------------------------------------|
|----5h7p5---------------------------------5h7p5-----------------------5-5-|
|----------7p5-3-3-5-5-5-5-7-7-8-8-1010----------7-3-3-5-5-5-5-5-5-1-1-5-5-|
|-00-----------3-3-3-3-5-5-5-5-8-8-8-8--00---------3-3-3-3-3-3-3-3-1-1-3-3-|
|-00-----------3-3-3-3-5-5-5-5-8-8-8-8--00---------3-3-3-3-2-2-2-2-1-1-----|
|
|-------------------------------------------------------|
|-------------------------------------------------------|
|----5h7p5----------------------------------------------|
|----------7p5-3-3-5-5-5-5-7-7-8-8-1010-3-3-3-3-3-3-3-3-|
|-00-----------3-3-3-3-5-5-5-5-8-8-8-8--1-1-1-1-1-1-1-1-|
|-00-----------3-3-3-3-5-5-5-5-8-8-8-8--1-1-1-1-1-1-1-1-|

Breakdown
Gtrs I, II
|-----------------------------------|
|-----------------------------------|
|-----------------------------------|
|-----------------------------------|
|-000-000-000-000-000-000-000-0-0-0-|
|-000-000-000-000-000-000-000-0-0-0-|
|PM-- --- --- --- --- --- --- - - -
|
||---------------------------------------------------------------------||
||o-------------------------------------------------------------------o||
||---------------------------------------------------------------------||
||------------------------------------------------2-----------3--------||
||o-0-0-0-0----------------------------0-0-0-0----------5-----------3-o||
||--0-0-0-0--00-0000-0000-00---00-0000-0-0-0-0--0---0-0---0-0---0-0----||
PM  - - - -  -- ---- ---- --   -- ---- - - - -  -   - -   - -   - - 
[ Tab from: http://www.guitartabs.cc/tabs/i/it_dies_today/a_threnody_for_modern_romance_tab_ver_4.html ]
Verse
Gtr I
||---------------------------------------------------------------|
||o--------------------------------------------------------------|
||------------------------------------5-5------------------------|
||----2-----5---3---2-3p2-5-5-5--3-3--5-5----2-----5---3---2-3p2-|
||o-0---3p0---------------5-5-5--3-3--3-3--0---3p0---------------|
||--0---------0---0-------5-5-5--3-3-------0---------0---0-------|
|PM           -   -                                  -   -  
| 
|------------------------------------------||
|-----------------------------------------o||
|1010101010101010-14-14-14-14-12-12-12-12--||
|-x-x-x-x-x-x-x-x--x--x--x--x--x--x--x--x--||
|-8-8-8-8-8-8-8-8-12-12-12-12-10-10-10-10-o||
|------------------------------------------||
|
|Gtr II
|---------------------------------------------------------------|
|---------------------------------------------------------------|
|------------------------------------5-5------------------------|
|----2-----5---3---2-3p2-5-5-5--3-3--5-5----2-----5---3---2-3p2-|
|--0---3p0---------------5-5-5--3-3--3-3--0---3p0---------------|
|--0---------0---0-------5-5-5--3-3-------0---------0---0-------|
|PM          -   -                                  -   -  
| 
|---------------------------------|
|---------------------------------|
|1010101010101010-7-7-7-7-7-7-7-7-|
|-x-x-x-x-x-x-x-x-x-x-x-x-x-x-x-x-|
|-8-8-8-8-8-8-8-8-5-5-5-5-5-5-5-5-|
|---------------------------------|
|
|---------------------------------------------------------------|
|---------------------------------------------------------------|
|------------------------------------5-5------------------------|
|----2-----2-------------5-5-5--3-3--5-5----2-----2-------------|
|--0---3p0-----5---3-5p3-5-5-5--3-3--3-3--0---3p0-----5---3-5p3-|
|--0---------0---0-------5-5-5--3-3-------0---------0---0-------|
|PM          -   -                                  -   -  
| 
|---------------------------------|
|---------------------------------|
|1010101010101010-7-7-7-7-7-7-7-7-|
|-x-x-x-x-x-x-x-x-x-x-x-x-x-x-x-x-|
|-8-8-8-8-8-8-8-8-5-5-5-5-5-5-5-5-|
|---------------------------------|

Fill
Gtrs I, II
|---------------------------------|
|---------------------------------|
|---------9-7-----5-5-5-5-7-7-7-7-|
|-----7-9-----9-7-5-5-5-5-7-7-7-7-|
|-0-7-------------3-3-3-3-5-5-5-5-|
|---------------------------------|
PM- - - - - - - -

Chorus
Gtr I
|--------------------------------------------------------------------------|
|--------------------------------------------------------------------------|
|----------------------------------------------------------------------5-5-|
|----7h8p7-----3-3-5-5-5-5-7-7-8-8-1010----7h8p7---3-3-5-5-5-5-5-5-1-1-5-5-|
|-00-------8p7-3-3-3-3-5-5-5-5-8-8-8-8--00-------8-3-3-3-3-3-3-3-3-1-1-3-3-|
|-00-----------3-3-3-3-5-5-5-5-8-8-8-8--00---------3-3-3-3-2-2-2-2-1-1-----|
|
|-------------------------------------------------------|
|-------------------------------------------------------|
|-------------------------------------------------------|
|----7h8p7-----3-3-5-5-5-5-7-7-8-8-1010-3-3-3-3-3-3-3-3-|
|-00-------8p7-3-3-3-3-5-5-5-5-8-8-8-8--1-1-1-1-1-1-1-1-|
|-00-----------3-3-3-3-5-5-5-5-8-8-8-8--1-1-1-1-1-1-1-1-|
|
|Gtr II
|--------------------------------------------------------------------------|
|--------------------------------------------------------------------------|
|----5h7p5---------------------------------5h7p5-----------------------5-5-|
|----------7p5-3-3-5-5-5-5-7-7-8-8-1010----------7-3-3-5-5-5-5-5-5-1-1-5-5-|
|-00-----------3-3-3-3-5-5-5-5-8-8-8-8--00---------3-3-3-3-3-3-3-3-1-1-3-3-|
|-00-----------3-3-3-3-5-5-5-5-8-8-8-8--00---------3-3-3-3-2-2-2-2-1-1-----|
|
|-------------------------------------------------------|
|-------------------------------------------------------|
|----5h7p5----------------------------------------------|
|----------7p5-3-3-5-5-5-5-7-7-8-8-1010-3-3-3-3-3-3-3-3-|
|-00-----------3-3-3-3-5-5-5-5-8-8-8-8--1-1-1-1-1-1-1-1-|
|-00-----------3-3-3-3-5-5-5-5-8-8-8-8--1-1-1-1-1-1-1-1-|

Bridge
Gtr I                                       1._____________ 2.___________
|------------------------------------------|---------------|-------------|
|------------------------------------------|---------------|-------------|
|------------------------------------------|---------------|-3-3-3-5-5-5-|
|-0-------------0-------------0------------|-2-----5---3p2-|-3-3-3-5-5-5-|
|-0--0-0-0-0-0--0--0-0-0-0-0--0--0-0-0-0-0-|---3p0---------|-1-1-1-3-3-3-|
|-0--0-0-0-0-0--0--0-0-0-0-0--0--0-0-0-0-0-|---------0-----|-------------|
PM   - - - - -     - - - - -     - - - - -           -
     
Gtr II                                      1._____________ 2.___________
|------------------------------------------|---------------|-------------|
|------------------------------------------|---------------|-------------|
|------------------------------------------|---------------|-3-3-3-5-5-5-|
|-0-------------0-------------0------------|-2-----2-------|-3-3-3-5-5-5-|
|-0--0-0-0-0-0--0--0-0-0-0-0--0--0-0-0-0-0-|---3p0-----5p3-|-1-1-1-3-3-3-|
|-0--0-0-0-0-0--0--0-0-0-0-0--0--0-0-0-0-0-|---------0-----|-------------|
PM   - - - - -     - - - - -     - - - - -           -

Solo 
Gtr I                   1.______________________ 2._______________________
|----------------------|------------------------|-------------------------|
|----------------------|------------------------|-------------------------|
|-7--7-7-7--5--3-3-3-3-|-5-5-5-5----------------|-------------------------|
|-7--7-7-7--5--3-3-3-3-|-5-5-5-5--2-----5---3p2-|-3-3-3-3--0--------------|
|-5--5-5-5--3--1-1-1-1-|-3-3-3-3----3p0---------|-3-3-3-3--0--0-0-0-0-0-0-|
|----------------------|------------------0-----|-3-3-3-3--0--0-0-0-0-0-0-|

Fill
Gtrs I, II
|---------------------------------|
|---------------------------------|
|---------9-7-----5-5-5-5-7-7-7-7-|
|-----7-9-----9-7-5-5-5-5-7-7-7-7-|
|-0-7-------------3-3-3-3-5-5-5-5-|
|---------------------------------|
PM- - - - - - - -

Chorus
Gtr I
|--------------------------------------------------------------------------|
|--------------------------------------------------------------------------|
|----------------------------------------------------------------------5-5-|
|----7h8p7-----3-3-5-5-5-5-7-7-8-8-1010----7h8p7---3-3-5-5-5-5-5-5-1-1-5-5-|
|-00-------8p7-3-3-3-3-5-5-5-5-8-8-8-8--00-------8-3-3-3-3-3-3-3-3-1-1-3-3-|
|-00-----------3-3-3-3-5-5-5-5-8-8-8-8--00---------3-3-3-3-2-2-2-2-1-1-----|
|
|-------------------------------------------------------|
|-------------------------------------------------------|
|-------------------------------------------------------|
|----7h8p7-----3-3-5-5-5-5-7-7-8-8-1010-3-3-3-3-3-3-3-3-|
|-00-------8p7-3-3-3-3-5-5-5-5-8-8-8-8--1-1-1-1-1-1-1-1-|
|-00-----------3-3-3-3-5-5-5-5-8-8-8-8--1-1-1-1-1-1-1-1-|
|
|Gtr II
|--------------------------------------------------------------------------|
|--------------------------------------------------------------------------|
|----5h7p5---------------------------------5h7p5-----------------------5-5-|
|----------7p5-3-3-5-5-5-5-7-7-8-8-1010----------7-3-3-5-5-5-5-5-5-1-1-5-5-|
|-00-----------3-3-3-3-5-5-5-5-8-8-8-8--00---------3-3-3-3-3-3-3-3-1-1-3-3-|
|-00-----------3-3-3-3-5-5-5-5-8-8-8-8--00---------3-3-3-3-2-2-2-2-1-1-----|
|
|-------------------------------------------------------|
|-------------------------------------------------------|
|----5h7p5----------------------------------------------|
|----------7p5-3-3-5-5-5-5-7-7-8-8-1010-3-3-3-3-3-3-3-3-|
|-00-----------3-3-3-3-5-5-5-5-8-8-8-8--1-1-1-1-1-1-1-1-|
|-00-----------3-3-3-3-5-5-5-5-8-8-8-8--1-1-1-1-1-1-1-1-|
|
|Gtr I
|--------------------------------------------------------------------------|
|--------------------------------------------------------------------------|
|----------------------------------------------------------------------5-5-|
|----7h8p7-----3-3-5-5-5-5-7-7-8-8-1010----7h8p7---3-3-5-5-5-5-5-5-1-1-5-5-|
|-00-------8p7-3-3-3-3-5-5-5-5-8-8-8-8--00-------8-3-3-3-3-3-3-3-3-1-1-3-3-|
|-00-----------3-3-3-3-5-5-5-5-8-8-8-8--00---------3-3-3-3-2-2-2-2-1-1-----|
|
|-------------------------------------------------------------------------|
|-------------------------------------------------------------------------|
|-------------------------------------------------------------------------|
|----7h8p7-----3-3-5-5-5-5-7-7-8-8-1010-3-3-3-3-3-3-3-3-3-3-3-3-3-3-3-3-0-|
|-00-------8p7-3-3-3-3-5-5-5-5-8-8-8-8--1-1-1-1-1-1-1-1-1-1-1-1-1-1-1-1-0-|
|-00-----------3-3-3-3-5-5-5-5-8-8-8-8--1-1-1-1-1-1-1-1-1-1-1-1-1-1-1-1-0-|
|
|Gtr II
|--------------------------------------------------------------------------|
|--------------------------------------------------------------------------|
|----5h7p5---------------------------------5h7p5-----------------------5-5-|
|----------7p5-3-3-5-5-5-5-7-7-8-8-1010----------7-3-3-5-5-5-5-5-5-1-1-5-5-|
|-00-----------3-3-3-3-5-5-5-5-8-8-8-8--00---------3-3-3-3-3-3-3-3-1-1-3-3-|
|-00-----------3-3-3-3-5-5-5-5-8-8-8-8--00---------3-3-3-3-2-2-2-2-1-1-----|
|
|--------------------------------------------------------------------------|
|--------------------------------------------------------------------------|
|----5h7p5-----------------------------------------------------------------|
|----------7p5-3-3-5-5-5-5-7-7-8-8-1010-3-3-3-3-3-3-3-3-3-3-3-3-3-3-3-3--0-|
|-00-----------3-3-3-3-5-5-5-5-8-8-8-8--1-1-1-1-1-1-1-1-1-1-1-1-1-1-1-1--0-|
|-00-----------3-3-3-3-5-5-5-5-8-8-8-8--1-1-1-1-1-1-1-1-1-1-1-1-1-1-1-1--0-|

End.
Comments