It Dies Today - A Threnody For Modern Romance Chords & Tabs

 

A Threnody For Modern Romance Chords & Tabs

It Dies Today Chords & Tabs

Version: 2 Type: Tab 0 ratings
1 star 2 stars 3 stars 4 stars 5 stars
comments

A Threnody For Modern Romance Tab

   
Artist: It Dies Today
Song: A Threnody for Modern Romance
Album: The Caitiff Choir
Tabber: NerdyBassPlayer 

Tuning: Drop C (CGCFAD)

Intro 
D|--------------------------------------------------------|
A|--------------------------------------------------------|
F|--------------------------------------------------------|
C|-------------------3-2--------------------------3-2---5-|
G|-000-000-000-000-3-----5-3-0--000-000-000-000-3-----5---|
C|-000-000-000-000-----------0--000-000-000-000-----------|
PM ... ... ... ...              ... ... ... ...

D|--------------------------------------------|
A|--------------------------------------------|
F|------------------------------------3-3-5-5-|
C|-------------------3-2------5-5-3-3-3-3-5-5-|
G|-000-000-000-000-3-----5-3--5-5-3-3-1-1-3-3-|
C|-000-000-000-000------------5-5-3-3---------|
PM ... ... ... ...

Verse
D|-------------------------------------------------------------|
A|-------------------------------------------------------------|
F|----------------------------------5-5------------------------|
C|---2-----5---3---2-3p2-555555-3-3-5-5----2-----5---3---2-3p2-|
G|-0---3p0---------------555555-3-3-3-3--0---3p0---------------|
C|-0---------0---0-------555555-3-3------0---------0---0-------|
PM           .   .                                 .   .

D|-----------------------------------------|
A|-----------------------------------------|
F|1010101010101010-14-14-14-14-12-12-12-12-|
C|-x-x-x-x-x-x-x-x--x--x--x--x--x--x--x--x-|
G|-8-8-8-8-8-8-8-8-12-12-12-12-10-10-10-10-|
C|-----------------------------------------|

Chorus
D|------------------------------------------------------------------------|
A|------------------------------------------------------------------------|
F|--------------------------------------------------------------------5-5-|
C|----7h8p7---3-3-5-5-5-5-7-7-8-8-1010----7h8p7---3-3-5-5-5555555-1-1-5-5-|
G|-00-------8-3-3-3-3-5-5-5-5-8-8-8-8--00-------8-3-3-3-3-3333333-1-1-3-3-|
C|-00---------3-3-3-3-5-5-5-5-8-8-8-8--00---------3-3-3-3-2222222-1-1-----|

D|-------------------------------------------------------|
A|-------------------------------------------------------|
F|-------------------------------------------------------|
C|----7h8p7---3-3-5-5-5-5-7-7-8-8-1010-33333333333333333-|
G|-00-------8-3-3-3-3-5-5-5-5-8-8-8-8--11111111111111111-|
C|-00---------3-3-3-3-5-5-5-5-8-8-8-8--11111111111111111-|
[ Tab from: http://www.guitartabs.cc/tabs/i/it_dies_today/a_threnody_for_modern_romance_tab_ver_2.html ]
Bridge 1
D|-------------------------------------------------|
A|-------------------------------------------------|
F|-------------------------------------------------|
C|-------------------------------------------------|
G|-000-000-000-000-000-000-000-000-0-0-0-0-0-0-0-0-|
C|-000-000-000-000-000-000-000-000-0-0-0-0-0-0-0-0-|
PM ... ... ... ... ... ... ... ... . . . . . . . .

D|----------------------------------------------------------------|
A|----------------------------------------------------------------|
F|----------------------------------------------------------------|
C|--------------------------------------------2-----------3-------|
G|-00-0000-00-0000-00--00-0000-00-0000-00---5-----3-5---5-----0-3-|
C|-00-0000-00-0000-00--00-0000-00-0000-00-0-----0-----0-----0-----|
PM .. .... .. .... ..  .. .... .. .... ..       .     .     .

Verse

Fill
D|---------------------------|
A|---------------------------|
F|---------9-7-----5555-7777-|
C|-----7-9-----9-7-5555-7777-|
G|-0-7-------------3333-5555-|
C|---------------------------|
PM . . . . . . . .

Chorus

Bridge
D|-----------------------------------------------------------------------|
A|-----------------------------------------------------------------------|
F|---------------------------------------------------------------333-555-|
C|-------------------------2-----5---3p2-------------------------333-555-|
G|-0-00000-0-00000-0-00000---3p0---------0-00000-0-00000-0-00000-111-333-|
C|-0-00000-0-00000-0-00000---------0-----0-00000-0-00000-0-00000---------|
     .....   .....   .....         .       .....   .....   .....

Solo (background chords)
D|-------------------------------------------------------------------------|
A|-------------------------------------------------------------------------|
F|-777777-5-333333-555555-----------------777777-5-333333------------------|
C|-777777-5-333333-555555--2-----5---3p2--777777-5-333333-333333-0---------|
G|-555555-3-111111-333333----3p0----------555555-3-111111-333333-0-0000000-|
C|---------------------------------0----------------------333333-0-0000000-|
PM                                 .                               .......

Play the chorus until the end of the song

End playing this 
D|-------------------------------------|
A|-------------------------------------|
F|-333333333333333333333333333333333---|
C|-333333333333333333333333333333333-0-|
G|-111111111111111111111111111111111-0-|
C|-111111111111111111111111111111111-0-|
Comments