Isley Brothers - Voyage To Atlantis Chords & Tabs

 

Voyage To Atlantis Chords & Tabs

Isley Brothers Chords & Tabs

Version: 1 Type: Tab 0 ratings
1 star 2 stars 3 stars 4 stars 5 stars
comments

Voyage To Atlantis Tab

Thought I'd try tabbing out some oldies with the help of my friend chris.

Intro/Verse/Chrous
During the intro these chords are played pretty soft. Atleast to what I can make out 
my noobie ears lol.

E-5----x-5---x--5----5----3--5-|
B-5----x-5---x--5----5----3--5-|
G-7----x-6---x--6----7----4--6-|
D-7----x-7---x--7----7----5--7-|
A-5----x-7---x--7----5----5--7-|
E-5----x-5---x---5----5---3--5-|

Bridge
[ Tab from: http://www.guitartabs.cc/tabs/i/isley_brothers/voyage_to_atlantis_tab.html ]
E-3--x--5--x---5--x--5---5-|
B-3--x--5--x---5--x--5---5-|
G-4--x--6--x---7--x--6---7-|
D-5--x--7--x---7--x--7---7-|
A-5--x--7--x---5--x--7---5-|
E-3--x--5--x---5--x--5---5-|

E-3--x---5--x---5--5--3---|
B-3--x---5--x---5--5--3---|
G-4--x---6--x---6--7--4---|
D-5--x---7--x---7--7--5---|
A-5--x---7--x---7--5---5--|
E-3--x---5--x---5---5---3-|

Intro
Verse
Bridge
Chorus
Verse
Bridge
Chorus
Outro

There are still parts im working on. Their is a second guitar playing  little fill 
out the song (Ernie Isley). Hope to have his fills up soon. Enjoy =D. Any request just e-mail 
at chabar4185@yahoo.com. Im only taking R&B request at the moment.
Comments