Isley Brothers - That Lady Chords & Tabs

 

That Lady Chords & Tabs

Isley Brothers Chords & Tabs

Version: 1 Type: Bass Tab 0 ratings
1 star 2 stars 3 stars 4 stars 5 stars
comments

That Lady Bass Tab

Song: That Lady
Artist: The Isley Brothers
Album: Greatest Hits Volume 1
Tabbed by: Dave Miller (dwm3@po.cwru.edu)
http://www.basstabarchive.com/


You've probably all heard this song on those
shampoo TV commrecials.  "Who's that lady?
...that lovely lady."

Intro

G|--------------------------------------|
D|*--/12--10------10--10h12---10--------|
A|*-----------13------------------------|
E|--------------------------------------|

    
Chorus

G|--------------------------------------|
D|*--------------------------8h10-------|
A|*--------10----8-----8h10-------------|
E|---8--11----11---11-------------------|
			

G|--------------------------------------|
D|*-------------------------------------|
A|*------8h10----8--8h10-8--------------|
E|---8-8------11-----------11-6---------|


Verse
[ Tab from: http://www.guitartabs.cc/tabs/i/isley_brothers/that_lady_btab.html ]
G|-----------------------------------------|
D|*-------6------------8-------------6-----|
A|*---6-6---6--------8---8-------6-6---6---|
E|--4---------4---6--------6---4---------4-|

G|-----------------------------------------|
D|*------------------1---------------------|
A|*------------------------3---------------|
E|----3---1-----3--------------------------|
    "look now...but don't touch..."
    "just do....what i say", etc.
    
    
Chorus after 2nd verse

G|-------------------------------------------|
D|*------------------------------------8h10--|
A|*-------------------8h10--8-----8h10-------|
E|---8-8-8--8-6-8--11----------11------------|
			

G|-------------------------------------------|
D|*------------------------------------------|
A|*-------------------8h10--8-----10-8-------|
E|---8-8-8--8-6-8--11----------11------11-6--|
    
Comments