Isley Brothers - Its Your Thing Chords & Tabs

 

Its Your Thing Chords & Tabs

Isley Brothers Chords & Tabs

Version: 2 Type: Bass Tab 0 ratings
1 star 2 stars 3 stars 4 stars 5 stars
comments

Its Your Thing Bass Tab

Song: It's Your Thing
Artist: The Isley Brothers
Album: Greatest Hits Volume 1
Tabbed by: Dave Miller (dave@basstabarchive.com)
http://www.basstabarchive.com/


Intro/Chorus
[ Tab from: http://www.guitartabs.cc/tabs/i/isley_brothers/its_your_thing_btab_ver_2.html ]
G|-----------------------------------------|
D|*----------------------------------------|
A|*--8---------8-8-8----------5-5-6-6-7-7--|
E|------1--6---------x-1--6-6--------------|


Verse

G|-----------------------------------------|
D|*----------------------------------------|
A|*--8--8----8----------8--8----8----------|
D|---------8---8-1-1----------8---8-1-6-8--|


Structure:

Intro/Chorus x 6
Verse x 8
Chorus x 4
Verse x 8
Chorus x 4
Verse x 8
Chorus to fade
Comments