Isley Brothers - Footsteps In The Dark Chords & Tabs

 

Footsteps In The Dark Chords & Tabs

Isley Brothers Chords & Tabs

Version: 2 Type: Bass Tab 0 ratings
1 star 2 stars 3 stars 4 stars 5 stars
comments

Footsteps In The Dark Bass Tab

Song: Footsteps in the Dark (Parts 1 and 2)
Artist: The Isley Brothers
Album: Greatest Hits Volume 1
Tabbed by: Dave Miller (dave@basstabarchive.com)
http://www.basstabarchive.com/


Ice Cube sampled this great Isley Brothers
tune in "It Was A Good Day".


Verse

G|--------------------------------------|
D|*-------------------------------------|
A|*-----2-----2-----4-----0-2\----------|
E|---0-----0-----2-----2----------------|

    
Chorus
[ Tab from: http://www.guitartabs.cc/tabs/i/isley_brothers/footsteps_in_the_dark_btab_ver_2.html ]
G|---5-5-----------------------------------|
D|*------5-5--------------------7-----7----|
A|*----------3----3---------7-7-----7---7--|
E|--------------3---3---5-5----------------|


G|---------------------------------4-------|
D|*--4-4-----------4-----------4-4---------|
A|*------4-4---------4-----2-2----------4--|
E|-----------2---2-----2-------------------|



Verse variation

G|-----------------------------------------|
D|*----------------------------------------|
A|*--------------------------------0h2-----|
E|--0--/12\--0-/12\---2--/14\--2-2---------|
Comments