Isley Brothers - Fight The Power Chords & Tabs

 

Fight The Power Chords & Tabs

Isley Brothers Chords & Tabs

Version: 1 Type: Bass Tab 0 ratings
1 star 2 stars 3 stars 4 stars 5 stars
comments

Fight The Power Bass Tab

Song: Fight the Power (Parts 1 and 2)
Artist: The Isley Brothers
Album: Greatest Hits Volume 1
Tabbed by: Dave Miller (dave@basstabarchive.com)
http://www.basstabarchive.com/


Intro

G|-----------------------------------------|
D|*----------------------------------------|
A|*--5--6--7-7-------7----7-7--------------|
E|-------------0-0-3---0------0-0-3--------|


Verse

G|-----------------------------------------|
D|*----------------------------------------|
A|*----------------------------------------|
E|---0--0--0----0--3-3--5-5--0-------------|


Chorus
[ Tab from: http://www.guitartabs.cc/tabs/i/isley_brothers/fight_the_power_btab.html ]
G|----------------|-------------|------------|
D|*---------------|-------------|------------|
A|*---------------|-----------7-|------------|
E|---5-5-5--7-7-7-|-\0-0--5-7---|-5--4--3--2-|
	            1st 3 times    4th time
		    repeating      repeating chorus
                                   riff

Outro

G|-----------------------------------------|
D|*----------------------------------------|
A|*----------------------------------------|
E|---0--0--0--0--0--0--3-------------------|
    "Fight the power..."



Structure:

Intro x 2
Verse x 12
Chorus x 4
Verse x 12
Chorus x 4
Verse x 4
Outro to fade
Comments