Isley Brothers - Between The Sheets Chords & Tabs

 

Between The Sheets Chords & Tabs

Isley Brothers Chords & Tabs

Version: 2 Type: Bass Tab 0 ratings
1 star 2 stars 3 stars 4 stars 5 stars
comments

Between The Sheets Bass Tab

Song: Between The Sheets
Artist: The Isley Brothers
Album: Greatest Hits Volume 1
Tabbed by: Dave Miller (dave@basstabarchive.com)
http://www.basstabarchive.com/


This song is tabbed in dropped D tuning.


Part I (Verse)

G|-------------------------------------|
D|*------------------------------------|
A|*---------------------3--------------|
D|---3-3--0-2----7--6-5----------------|

G|-------------------------------------|
D|*------------------------------------|
A|*---------------------3---2-2--------|
D|---3-3--0-2----7--6-5----------0-3---|
[ Tab from: http://www.guitartabs.cc/tabs/i/isley_brothers/between_the_sheets_btab_ver_2.html ]
G|-------------------------------------|
D|*------------------------------------|
A|*---------3--2-2---------------------|
D|---7--6-5---------0-2----------------|

    
Part II (Chorus)

G|-----------------------------------------------|
D|*----------------------------------------------|
A|*--5-5-------3-3-------2-2-------0-0---0--2--3-|
D|-------3-5-------5-7-------0-2-------5---------|

G|--------------------------------|
D|*-------------------------------|
A|*--5-5-------3-3-------2-2------|
D|-------3-5-------5-7-------0-2--|


Part III

G|--------------------------------------|
D|*-------------------------------------|
A|*---8--0---8--0-7---8--0---8--0-------|
D|--------------------------------------|


Structure:

Part I x 2
Part II x 1
Part I x 2
Part II x 1
Part I x 1
Part II x 2
Part III x 6 (to fade)
Comments