Isle Of Q - Bag Of Tricks Chords & Tabs

 

Bag Of Tricks Chords & Tabs

Isle Of Q Chords & Tabs

Version: 2 Type: Tab 0 ratings
1 star 2 stars 3 stars 4 stars 5 stars
comments

Bag Of Tricks Tab

Eb--||------------------------------------------------------------------
Bb--||------------------------------------------------------------------
Gb--||--------4--------4-----4--------4--------4-----4--------4---------
Db--||--------0--------0-----0--------4--------2-----1--------1---------
Ab--||--------------------------------------------------2--2-----2------
Eb--||--3--3-----3--3-----3-----0--0-----0--0-----0---------------------

Eb---------------------------------------||-----------3-----------------
Bb---------------------------------------||-----------3-----------------
Gb-----4-----4--------2-----2--------2--*||--2--2-----0-----------------
Db-----1-----1--------2-----2--------2--*||--2--2-----0--------2--------
Ab--2-----2-----0--0-----0-----4--5------||--0--0-----2--------2--------
Eb---------------------------------------||--------0--3--------0--------

Eb-----------------------3--------------------------------3-------------
Bb-----------------------3--------------------------------3-------------
Gb-----4--------2--2-----0-----------------4-----2--2-----0-------------
Db-----4--------2--2-----0--------2--------4-----2--2-----0--------2----
Ab-----2--------0--0-----2--------2--------2-----0--0-----2--------2----
Eb--------------------0--3--------0--------------------0--3--------0----

Eb--------------------------3--------------------|--0-------------------
Bb--------------------------3--------------------|--0-------------------
Gb--------4--------2--2-----0-----------------4--|--2-------------------
Db--------4--------2--2-----0--------2--------4--|--2-------------------
Ab--------2--------0--0-----2--------2--------2--|--0-------------------
Eb-----------------------0--3--------0-----------|----------------------

Palm mute these notes
[ Tab from: http://www.guitartabs.cc/tabs/i/isle_of_q/bag_of_tricks_tab_ver_2.html ]
Eb--0-----------------0-------------------------------------------------
Bb--0-----------------0-------------------------------------------------
Gb--4-----------------2-------------------------------------------------
Db--4-----------------2-----------------16--16--17--16--16--17--16------
Ab--2-----------------0-----------------14--14--14--14--14--14--14------
Eb----------------------------------------------------------------------

Eb----------------------------------------------------------------------
Bb----------------------------------------------------------------------
Gb----------------------------------------------------------------------
Db--17--14--14--16--14--14--16--14--16--13--13--14--13--13--14--13------
Ab--14--14--14--14--14--14--14--14--14--14--14--14--14--14--14--14------
Eb----------------------------------------------------------------------

Eb------|-----------3-----------------------------------3---------------
Bb------|-----------3-----------------------------------3---------------
Gb------|--2--2-----0-----------------4--------2--2-----0---------------
Db--14--|--2--2-----0--------2--------4--------2--2-----0--------2------
Ab--14--|--0--0-----2--------2--------2--------0--0-----2--------2------
Eb------|--------0--3--------0-----------------------0--3--------0------

Eb-----------------------3-----------------------------------3----------
Bb-----------------------3-----------------------------------3----------
Gb--------4-----2--2-----0-----------------4--------2--2-----0----------
Db--------4-----2--2-----0--------2--------4--------2--2-----0----------
Ab--------2-----0--0-----2--------2--------2--------0--0-----2----------
Eb--------------------0--3--------0-----------------------0--3----------

Outro solo

Eb--------------|-------------------------------------------------------
Bb--------------|--19^--19--17--17^--17--16--19^--19--17--17^--17-------
Gb-----------4--|-------------------------------------------------------
Db--2--------4--|-------------------------------------------------------
Ab--2--------2--|-------------------------------------------------------
Eb--0-----------|-------------------------------------------------------

Eb--19---||-------------------------------------------------------------
Bb-------||-------------------------------------------------------------
Gb------*||-------------------------------------------------------------
Db------*||-------------------------------------------------------------
Ab-------||-------------------------------------------------------------
Eb-------||-------------------------------------------------------------
Comments