Isengard - Neslepaks Chords & Tabs

 

Neslepaks Chords & Tabs

Isengard Chords & Tabs

Version: 1 Type: Tab 0 ratings
1 star 2 stars 3 stars 4 stars 5 stars
comments

Neslepaks Tab

            Neslepaks of the Høstmørke album by Isengard
                Transcribed by Torstein Aaring.
Riff1:
|---------------------     Slide:----------
|---------------------           ----------
|---------------------           ----------
|---------------------           ----------
|-2-3--2-3--2-3--2-3--           --2/5\1---
|-0-1--0-1--0-1--0-1--           --2/5\1---
[ Tab from: http://www.guitartabs.cc/tabs/i/isengard/neslepaks_tab.html ]
Riff2:
|---------------------------------------------------------
|---------------------------------------------------------
|---------------------------------------------------------
|---------------------------------------------------------
|---------------------------------------------------------
|-0-1-3-4-3-1-0-1-0-1-3-4-6-8-8-9-6-6-9-8-4-4-8-6-4-3-0-1-

Riff3:
|---------------------------------------
|---------------------------------------
|---------------------------------------
|---------------------------------------
|-3-3-5-6--3-3-5-6--2-2-4-5--2-2-4-5----
|-1-1-3-4--1-1-3-4--0-0-2-3--0-0-2-3----

Riff4:
|-----------------------------------------
|-----------------------------------------
|-----------------------------------------
|-------------------------------------3---
|-7-7-7-5-5-7-8-8-8-7-7-5-7-7-7-5-5-7-1-3-
|---------------------------------------1-


Play riffs in this order:
Riff1*4
Slide*1
Riff2*6
Riff3*7
Riff4*6
Riff1*6
Riff3*6
Riff4*11

This is a really easy song and fun to play :=)
Comments