Isaak Chris - I Wonder Chords & Tabs

 

I Wonder Chords & Tabs

Isaak Chris Chords & Tabs

Version: 1 Type: Tab 0 ratings
1 star 2 stars 3 stars 4 stars 5 stars
comments

I Wonder Tab

   



---------------------------------------|---------------------------------------
---------------------------------------|---------------------------------------
----------------9-7--5/7\5-------------|---------------5-----------------------
---------5------------------5/7\5------|---------5--------7-5------------------
-5-5h7---------------------------------|-5-5h7---------------------------------
---------------------------------------|---------------------------------------
				    Chords:
				C, F, G, C


-------------------------------------|--------------------------|-----------------0---------
-------------------------------------|--13------8---------------|--13--13--8--8---1---------
-------------------------------5-----|--14--12--9-----7h9/12----|-----------------0---------
---------------------5--5-5h7--------|--------------------------|--10------5------2---------
-------------5--5h7------------------|--12--10--7---------------|-----------------3---------
-------------------------------------|--------------------------|-----------------x---------
Chords again:				Repeat 3 times


------------------------------|----------------------------------1--------------------
------------------------------|----------------------------------1--------------------
-------------7-------5--------|--------------------0-------------2----5/7\5-5-5-------
---------5--------------7-5---|-----------------5--5-------------3--------------5/7\5-
-5--5h7-----------------------|------3---3h5/7-----7---5/7-5-3---3--------------7/8\7-
------------------------------|-3h5------------------------------1--------------------
				Solo
				


[ Tab from: http://www.guitartabs.cc/tabs/i/isaak_chris/i_wonder_tab.html ]
-----------------------------------------------------------------------------
--------------------------------8----------15/13-10--------------------------
-9-7-7h5h7--------------5--7/9------9/17---------------9/12----7/9\7---------
--------------------5h7-------------------------------10/14-----------10-----
-----------------------------------------------------------------------------
-----------------------------------------------------------------------------


			
----------------------12--|------------------------------|-------------------0-------
------------------13------|---13------8------------------|----13-13--8-8-----1-------
---------9--12/14------9--|---14--12--9------7h9/12------|-------------------0-------
10-10/12------------------|------------------------------|----10-10--5-5-----2-------
--------------------------|---12--10--7------------------|-------------------3-------
--------------------------|------------------------------|-------------------x-------
				Repeat 3 times

--------------------------|-------------------------------------------------------
--------------------------|-------------------------------------------------------
-----------7----5---------|----------5-------------------------------------5------
-------5-----------7-5----|-------5----7-5------------------------5--5-5h7--------
-5-5h7--------------------|-5-5h7--------------------------5-5h7------------------
--------------------------|-------------------------------------------------------
		     Chords again	    Chords again:
		     C, F, G, C		    C, F, G, C

-------------------------|---------------|-0--------------------0--|-----------------------
--13------8--------------|--13-13---8-8--|-1--------------------1--|-----------------------
--14--12--9------7h9/12--|---------------|-0---------------7----0--|--4--5--7-------5------
-------------------------|--10------5----|-2-----------5--------2--|---------------5-------
--12--10--7--------------|---------------|-3-----5-5h7----------3--|--------------7--------
-------------------------|---------------|-x--------------------x--|--7--8--10---8---------
Repeat 3 times					Repeat 3 times		ending
						(last time without
						 the c-chord, just
						 ending...)



The end
By:Joakim Schöning
hifimannen@yahoo.se
Comments