Isaac Hayes - Theme From Shaft Chords & Tabs

 

Theme From Shaft Chords & Tabs

Isaac Hayes Chords & Tabs

Version: 1 Type: Bass Tab 0 ratings
1 star 2 stars 3 stars 4 stars 5 stars
comments

Theme From Shaft Bass Tab

Song: Theme From Shaft
Artist: Isaac Hayes
Tabbed by: K.C. (kc@kcsrealm.com)
Tuning: Standard


Intro:                                                     

   let ring                                                (Play 5 Times)
G|--------|-------|-------|-------|-------|-------|-------|-------------|
D|*-------|-------|-------|-------|-------|-------|-------|------------*|
A|*-8=====|(8)====|-8=====|(8)====|-7=====|(7)====|-7=====|(7)====5-7--*|
E|--------|-------|-------|-------|-------|-------|-0=====|(0)====------|


G|--------|-------|-------|-------|-------|---------|
D|--------|-------|-------|-------|-------|---------|
A|--8=====|(8)====|-8=====|(8)====|-7=====|-7=====--|
E|--------|-------|-------|-------|-------|-0=====--|




Bridge: 
                         (Play 15 times)
G|-------------------------------------|
D|*------5--------5-------5-----------*|
A|*--5h7------5h7-----5h7-------------*|
E|------------------------------3------|


[ Tab from: http://www.guitartabs.cc/tabs/i/isaac_hayes/theme_from_shaft_btab.html ]
Verse: 
                                                  (Play 7 times)
G|------5-------5-----5-------------4-------4-----4-------4----|
D|*---7------7==----7------7==----5------5==----5------5==----*|
A|*-8-----8==-----8-----8==---8-7-----7==-----7-----7==-------*|
E|-------------------------------------------------------------|



Bridge (x5)



Outro:
                                        (Play 2 times)
G|---------------|---------------|---------|---------|
D|---------------|---------------|-Rest----|-Rest---*|
A|-88888-88888-8-|-88888-88888-8-|---------|--------*|
E|---------------|---------------|---------|---------|


                                                               (fade out)
G|-------|------|-------|------|-------|------|--------|------|---------|
D|-------|-Rest-|-------|-Rest-|-------|-Rest-|--------|------|---------|
A|-8-----|------|-7-----|------|-8-----|------|-7----7-|----7-|-8=======|
E|-------|------|-------|------|-------|------|--------|------|---------|

Comments