Is This Real - Where Am I Chords & Tabs

 

Where Am I Chords & Tabs

Is This Real Chords & Tabs

Version: 1 Type: Tab 0 ratings
1 star 2 stars 3 stars 4 stars 5 stars
comments

Where Am I Tab

Title: Where am I?
Band: Is this real
Tabbed By blink182rocker

Intro:
e: ----------12----12---------------12---12--------------12----12--------
B: ------10----10----10----------10---10----10-------10----10----10----
G: --11-----------------------11------------------11---------------------
D: 9----------------------------------------------------------------------------     X2
A: -------------------------9--------------------------------------------------
E: ----------------------------------------------9-------------------------


Verse:
e: ---------------------------------------------------------------------------------------------------
B: --------------------------------------------------------------------------------------------------
G: --------------------------------------------------------------------------------------------------
D: 4-4-4 --4--4-8-8-8---8--8--12-12-12----12---12--4-4-4----4---4-----------------------
A: 4-4-4-4--4---8-8-8-8--8----12-12-12-12---12-----4-4-4--4---4-------------------------
E: 2-2-2--------6-6-6---------10-10-10-------------2-2-2----------------------------------


Chorus:
e: ---------------------------------------------------------------------------------
B: --------------------------------------------------------------------------------
G: --------3-3-3-3----------5-5-5-5---------3-3-3-3---------5-5-5-5
D: 3-3-3-3-3-3-3-3--5-5-5-5-5-5-5-5-3-3-3-3-3-3-3-3-5-5-5-5-5-5-5-5   (Keep Beat 
A: 3-3-3-3-1-1-1-1--5-5-5-5-3-3-3-3-3-3-3-3-1-1-1-1-5-5-5-5-3-3-3-3     with up 
E: 1-1-1-1----------3-3-3-3---------1-1-1-1---------3-3-3-3----------      strokes)



Verse:
e: ---------------------------------------------------------------------------------------------------
B: --------------------------------------------------------------------------------------------------
G: --------------------------------------------------------------------------------------------------
D: 4-4-4 --4--4-8-8-8---8--8--12-12-12----12---12--4-4-4----4---4-----------------------
A: 4-4-4-4--4---8-8-8-8--8----12-12-12-12---12-----4-4-4--4---4-------------------------
E: 2-2-2--------6-6-6---------10-10-10-------------2-2-2----------------------------------



Chorus:
e: ---------------------------------------------------------------------------------
B: --------------------------------------------------------------------------------
G: --------3-3-3-3----------5-5-5-5---------3-3-3-3---------5-5-5-5
D: 3-3-3-3-3-3-3-3--5-5-5-5-5-5-5-5-3-3-3-3-3-3-3-3-5-5-5-5-5-5-5-5   (Keep Beat 
A: 3-3-3-3-1-1-1-1--5-5-5-5-3-3-3-3-3-3-3-3-1-1-1-1-5-5-5-5-3-3-3-3     with up 
E: 1-1-1-1----------3-3-3-3---------1-1-1-1---------3-3-3-3----------      strokes)




Verse:
e: ---------------------------------------------------------------------------------------------------
B: --------------------------------------------------------------------------------------------------
G: --------------------------------------------------------------------------------------------------
D: 4-4-4 --4--4-8-8-8---8--8--12-12-12----12---12--4-4-4----4---4-----------------------
A: 4-4-4-4--4---8-8-8-8--8----12-12-12-12---12-----4-4-4--4---4-------------------------
E: 2-2-2--------6-6-6---------10-10-10-------------2-2-2----------------------------------


[ Tab from: http://www.guitartabs.cc/tabs/i/is_this_real/where_am_i_tab.html ]
Chorus:
e: ---------------------------------------------------------------------------------
B: --------------------------------------------------------------------------------
G: --------3-3-3-3----------5-5-5-5---------3-3-3-3---------5-5-5-5
D: 3-3-3-3-3-3-3-3--5-5-5-5-5-5-5-5-3-3-3-3-3-3-3-3-5-5-5-5-5-5-5-5   (Keep Beat 
A: 3-3-3-3-1-1-1-1--5-5-5-5-3-3-3-3-3-3-3-3-1-1-1-1-5-5-5-5-3-3-3-3     with up 
E: 1-1-1-1----------3-3-3-3---------1-1-1-1---------3-3-3-3----------      strokes)



Verse:
e: ---------------------------------------------------------------------------------------------------
B: --------------------------------------------------------------------------------------------------
G: --------------------------------------------------------------------------------------------------
D: 4-4-4 --4--4-8-8-8---8--8--12-12-12----12---12--4-4-4----4---4-----------------------
A: 4-4-4-4--4---8-8-8-8--8----12-12-12-12---12-----4-4-4--4---4-------------------------
E: 2-2-2--------6-6-6---------10-10-10-------------2-2-2----------------------------------



Solo:
e: ---------------------------------------------------------------------------------------------------
B: --------------------------------------------------------------------------------------------------
G: 101010p8-101010p8-101010p8-101010p8-101010p8----8---8----8----8--------------
D: ----------------------------------------------10--10--10--10---------------
A: --------------------------------------------------------------------------------------------------
E: ---------------------------------------------------------------------------------------------------

e: ---------------------------------------------------------------------------------------------------
B: ---------------------------------------------------------------------------------------------------
G: ------------------------------------------10---10---10---10-------------------
D: 101010p8-101010p8/9-101010p8/9-101010p8--8----8----8----8-----------------------
A: ---------------------------------------------------------------------------------------------------
E: ---------------------------------------------------------------------------------------------------






e: -----------------------------------------------11---11-
B: --------------------------------------------11---11----
G: 101010p8-101010p8/9-101010p8/9-101010p8-------------------
D: --------------------------------------------------------------------------
A: --------------------------------------------------------------------------
E: --------------------------------------------------------------------------


Chorus:
e: ---------------------------------------------------------------------------------
B: --------------------------------------------------------------------------------
G: --------3-3-3-3----------5-5-5-5---------3-3-3-3---------5-5-5-5
D: 3-3-3-3-3-3-3-3--5-5-5-5-5-5-5-5-3-3-3-3-3-3-3-3-5-5-5-5-5-5-5-5   (Keep Beat 
A: 3-3-3-3-1-1-1-1--5-5-5-5-3-3-3-3-3-3-3-3-1-1-1-1-5-5-5-5-3-3-3-3     with up 
E: 1-1-1-1----------3-3-3-3---------1-1-1-1---------3-3-3-3----------      strokes)


e: ---------------------------------------------------------------------------------
B: --------------------------------------------------------------------------------
G: --------3-3-3-3----------5-5-5-5---------3-3-3-3---------5-5-5-5
D: 3-3-3-3-3-3-3-3--5-5-5-5-5-5-5-5-3-3-3-3-3-3-3-3-5-5-5-5-5-5-5-5   (Keep Beat 
A: 3-3-3-3-1-1-1-1--5-5-5-5-3-3-3-3-3-3-3-3-1-1-1-1-5-5-5-5-3-3-3-3     with up 
E: 1-1-1-1----------3-3-3-3---------1-1-1-1---------3-3-3-3----------      strokes)



e: ---------------------------------------------------------------------------------
B: --------------------------------------------------------------------------------
G: --------3-3-3-3----------5-5-5-5---------3-3-3-3---------5-5-5-5
D: 3-3-3-3-3-3-3-3--5-5-5-5-5-5-5-5-3-3-3-3-3-3-3-3-5-5-5-5-5-5-5-5   (Keep Beat 
A: 3-3-3-3-1-1-1-1--5-5-5-5-3-3-3-3-3-3-3-3-1-1-1-1-5-5-5-5-3-3-3-3     with up 
E: 1-1-1-1----------3-3-3-3---------1-1-1-1-----------3-3-3-3----------      strokes)


e: --------------
B: -------------
G: 5 (let ring)
D: 5 (let ring)
A: 3 (let ring)
E: -------------
Comments