Ironfire - Angel Of Light Chords & Tabs

 

Angel Of Light Chords & Tabs

Ironfire Chords & Tabs

Version: 2 Type: Tab 0 ratings
1 star 2 stars 3 stars 4 stars 5 stars
comments

Angel Of Light Tab

   
"Angel of light"
by IronFire

       Intro       Verse 1a:
E||--------------|-0-0-0-0-0--1-1-1--3-3-3-----------------------|
B||--------------|-1-1-1-1-1--3-3-3--3-3-3-----------------------|
G||--------------|-0-0-0-0-0--2-2-2--0-0-0-----------------------|
D||--------------|-2-3-2-2-2--0-0-0--0-0-0-----------------------|
A||-------3--5p3-|-3-3-3-3-3---------2-2-2-----------------------|
E||--3--5--------|-------------------3-3-3-----------------------|

Verse 1b:
E||--0-0-0-0--0-0-0--3-3-3--------------------------------------|
B||--1-1-1-1--0-0-0--3-3-3--------------------------------------|
G||--0-0-0-0--0-0-0--0-0-0--------------------------------------|
D||--2-2-2-2--2-2-2--0-0-0--------------------------------------|
A||--3-3-3-3--2-2-2--2-2-2--------------------------------------|
E||-----------0-0-0--3-3-3--------------------------------------|
[ Tab from: http://www.guitartabs.cc/tabs/i/ironfire/angel_of_light_tab_ver_2.html ]
Chorus:
        2x
E||--0-0-0--3-3-3-|--1-1-1-1-1-1--0-0-0--3-3-3--------------------|
B||--1-1-1--3-3-3-|--3-3-3-3-3-3--1-1-1--3-3-3--------------------|
G||--0-0-0--0-0-0-|--2-2-2-2-2-2--0-0-0--0-0-0--------------------|
D||--2-2-2--0-0-0-|--0-0-0-0-0-0--2-2-2--0-0-0--------------------|
A||--3-3-3--2-2-2-|---------------3-3-3--2-2-2--------------------|
E||---------3-3-3-|----------------------3-3-3--------------------|

Verse 1:
C Dm G
I'm lying here with tears in my eyes
C G
I guess it's time to say goodbye
C Dm G
Do you all the love that we had
C Em G
But now it's lost and gone



Pre-chorus:
C Dm G
I keep candle burning, deep in my heart
C Em G
But i'm still learning ,that we're so far apart


Chorus:
C G
Angel of light
C G
Shining so bright
Dm
Comments